Uphill Gardeners - All The Big Things Chords & Tabs

 

All The Big Things Chords & Tabs

Uphill Gardeners Chords & Tabs

Version: 1 Type: Bass Tab 0 ratings
1 star 2 stars 3 stars 4 stars 5 stars
comments

All The Big Things Bass Tab

Artist: Uphill GardenersSong: All The Big ThingsTabbed by: Dan Rowden
***  bass-tabs.co.uk - http://www.bass-tabs.co.uk  ***Riff 1:
G|------------------------------------------------------------------------|
D|------------------------------------------------------------------------|
A|-3-3-3-3-3-3-3-3-3-3-3-3-3-3-3-3----------------------------------------|
E|---------------------------------3-3-3-3-3-3-3-3-5-5-5-5-5-5-5-5-1-1--1-|

Riff 2:
G|-----------------------------------------------------------------|
D|-----------------------------------------------------------------|
A|-3-3-3-3-3-3-3-3-------------------------------------------------|
E|-----------------3-3-3-3-3-3-3-3-1-1-1-1-1-1-1-1-3-3-3-3-3-3-3-3-|

Riff 3:

G|---------------------------------|
D|---------------------------------|
A|-3--3-3--3--3-3------------------|
E|-----------------3--3-3--1--1-1--|

Riff 4:
[ Tab from: http://www.guitartabs.cc/tabs/u/uphill_gardeners/all_the_big_things_btab.html ]
G|-----------------------------------------------------------------|
D|-----------------------------------------------------------------|
A|-3-3-3-3-3-3-3-3-3-3-3-3-3-3-3-3---------------------------------|
E|---------------------------------3-3-3-3-3-3-3-3-1-1-1-1-1-1-1-1-|

Riff 5:

G|-----------------------------------------|
D|-----------------------------------------|
A|-3---------------------------------------|
E|-------------------1----------3----------|

Riff 6:

G|-------------------------------------------------|
D|-------------------------------------------------|
A|-3-3-3-3-3-3-3-3-3-3-3-3-3-3-3-3-----------------|
E|---------------------------------3-3-3-3-3-3-3-3-|

G|-----------------------------------|
D|-----------------------------------|
A|----------------------------3------|
E|-1-1-1--1-1-1--1-1-1--1-1-1--------|
Song Order:
Riff 1 (x2)
Riff 2 (x4)
Riff 3
Riff 4 (x2)
Riff 1 (x2)
Riff 2 (x2)
Riff 3
Riff 4 (x2)
Riff 5 (x4)
Riff 4 (x3)
Riff 6
Comments