Upgrade By Default - Untitled Mischief Chords & Tabs

 

Untitled Mischief Chords & Tabs

Upgrade By Default Chords & Tabs

Version: 1 Type: Tab 1 rating
1 star 2 stars 3 stars 4 stars 5 stars
comments

Untitled Mischief Tab

e ------3------------3------------2------------2-------------2------------3-----------3----------
b ---------0------------0------------0------------0-------------0------------0-----------0-------
g ------------0------------0------------0------------0-------------0------------0-----------0----
d -----------------------------------------------------------------------------------------------
a -----------------------------------------------------------------------------------------------
e ----3----------3-------------3------------3-------------3------------3-----------3-------------

[ Tab from: http://www.guitartabs.cc/tabs/u/upgrade_by_default/untitled_mischief_tab.html ]
e -------2-----------2------------3--3--3--3--3--3-----5--5--5--5--5--5-----7--7--7--7--7--7-----
b ----------0-----------0---------0--0--0--0--0--0-----0--0--0--0--0--0-----0--0--0--0--0--0-----
g -------------0-----------0------0--0--0--0--0--0-----0--0--0--0--0--0-----0--0--0--0--0--0-----
d --------------------------------0--0--0--0--0--0-----0--0--0--0--0--0-----0--0--0--0--0--0-----
a --------------------------------2--2--2--2--2--2-----4--4--4--4--4--4-----6--6--6--6--6--6-----
e ----3-----------3---------------3--3--3--3--3--3-----5--5--5--5--5--5-----7--7--7--7--7--7-----



e ----3--3--3--3--3--3--------------------------------------------------------------------------
b ----0--0--0--0--0--0--------------------------------------------------------------------------
g ----0--0--0--0--0--0--------------------------------------------------------------------------
d ----0--0--0--0--0--0--------------------------------------------------------------------------
a ----2--2--2--2--2--2--------------------------------------------------------------------------
e ----3--3--3--3--3--3--------------------------------------------------------------------------
Comments