Unwritten Law - Up All Night Chords & Tabs

 

Up All Night Chords & Tabs

Unwritten Law Chords & Tabs

Version: 2 Type: Tab 0 ratings
1 star 2 stars 3 stars 4 stars 5 stars
comments

Up All Night Tab

Intro - Guitars 1 & 2
[ Tab from: http://www.guitartabs.cc/tabs/u/unwritten_law/up_all_night_tab_ver_2.html ]
e---(1st, 2nd, & 3rd times)--|--(4th time)-------------------------------------
B----------------------------|-------------------------------------------------
G--6-6--6-9------------------|--------------9-8-5------------------------------
D--6-6--6-9--4-4-4-4-4--7-7--|--6-7-6-6-7-6-9-8-5------------------------------
A--4-4--4-7--4-4-4-4-4--7-7--|--6-7-6-6-7-6-7-6-3------------------------------
E--4-4--4-7--2-2-2-2-2--5-5--|--4-5-4-4-5-4-7-6-3------------------------------
                                                                              
Verse - Guitar 1 w/ reggae beats & palm muting, Guitar 2 only p.m.
e------0-0-0-0-----0-0-----0-----4------0-0-0-0-----0-0-----0------|-----------
B------5-5-5-0-----0-0-----0-----4------5-5-5-0-----0-0-----0------|-----------
G------------------------------------------------------------------|-----------
D--6-6------------------------------6-6----------------------------|--4-4--6-7-
A--4-4---------7-7-----9-9---6-6----4-4---------7-7-----9-9---9-9--|--4-4--6-7-
E--------------5-5-----7-7---4-4----------------5-5-----7-7---7-7--|--2-2--4-7-
                                                                              
Chorus - Guitar 1
e------------------------------------------------------------------------------
B------------------------------------------------------------------------------
G--4----6----2----4------------------------------------------------------------
D--2----6----2----4------------------------------------------------------------
A--2----4----0----2------------------------------------------------------------
E--0---------------------------------------------------------------------------
                                                                              
Chorus - Guitar 2
e------------------------------------------------------------------------------
B------------------------------------------------------------------------------
G--9----9----9----9--8---------------------------------------------------------
D------------------------------------------------------------------------------
A--7----7----7----7--6---------------------------------------------------------
E------------------------------------------------------------------------------
Comments