Unwritten Law - Up All Night Chords & Tabs

 

Up All Night Chords & Tabs

Unwritten Law Chords & Tabs

Version: 3 Type: Bass Tab 0 ratings
1 star 2 stars 3 stars 4 stars 5 stars
comments

Up All Night Bass Tab

Up All Night - Unwritten Law
Standard Tuning

Intro:
G:-----------------------        G:------------------------|
D:------2----------------        D:------------------------|
A:-444-----0-------------        A:------------------------|
E:--------------222------(X 3!)  E:--222--4h5p4h4---- <----|(play 4th time)

Verse I:
G:-------------------------------------------------------------------------|
D:-------------------------------------------------------------------------|
A:--44-------------44--------------44-------------44-----------------------|
E:-----55--77--44------55-77-77--------55-77--44-----55--222-4h5p4h4--0----|

Chorus:
G:-----------------------------------------|
D:-----------------------------------------|
A:--77777777--44444444------------22222222-|
E:----------------------55555555-----------| (X 2!)

After Chorus (between end of chorus & verse II):
G:----------------------------|
D:----------------------------|
A:--44------------44----------|
E:-----55--77--44----222--4h5-|
[ Tab from: http://www.guitartabs.cc/tabs/u/unwritten_law/up_all_night_btab_ver_3.html ]
Verse II:
G:---------------------------------------------------------------------------|
D:---------------------------------------------------------------------------|
A:-44------------44---4/6h7p6h6--4----44------------4----4/6h7p6h6-----------|
E:-----55--77--44----4--------------44----55--77--44----4----------4-22--4h5-|

Bridge:
G:--------------------------------------|
D:--------------------------------------|
A:--4---4/6h7p6h6---4----0-----2---2--4-|
E:----4---------------4------0---4------|(X 2)

ChorusX2

Ending:
G:-------------------------------------------------------------------------|
D:-------------------------------------------------------------------------|
A:--4(8X)--5(8X)--0(8X)--2(8X)----77777777------------44444444--22222222---|
E:------------------------------------------55555555-----------------------|

(8X) = PLay the note 8 times, kinda obvious, but theres a few stupid ppl out 
yeh, i think i did pretty good, its an aewsome some w/ an awesome bass line, so have fun with it...

questions, comments, concerns, propositions..email me: "bamelement412@yahoo"


-luke
Comments