Unwritten Law - Shallow Acoustic Chords & Tabs

 

Shallow Acoustic Chords & Tabs

Unwritten Law Chords & Tabs

Version: 1 Type: Tab 0 ratings
1 star 2 stars 3 stars 4 stars 5 stars
comments

Shallow Acoustic Tab

#----------------------------------PLEASE NOTE--------------------------------#
#This file is the author's own work and represents their interpretation of the#
#song. You may only use this file for private study, scholarship, or research.#
#-----------------------------------------------------------------------------#
#-- File created with Instab - http://www.pconline.com/~smcarey/instab.html --#
#-----------------------------------------------------------------------------#

Author/Artist: Unwritten Law
Title: Shallow (accoustic)
Album: From Music in High Places
Transcribed by: Kyle Bucchi
Email: kbucchi@attbi.com

This is my first tab that I have submitted. 
I think it's pretty good, and sounds accurate. 
This is the accoustic version off the cd from music in high places. It's a kick arse song.

----------99-7--------99--7--------99---7----------11--9----------------------
--777777------777777--------77777----------999999-----------------------------
------------------------------------------------------------------------------
------------------------------------------------------------------------------
------------------------------------------------------------------------------
------------------------------------------------------------------------------
 Intro-Listen to the track for timing-repeat X2                               

----3---------3------3-----3--------------------------------------------------
----3---------3------3-----3--------------------------------------------------
----0---------0------0-----2--------------------------------------------------
----0-x8------2-x8---2-x8--0-x8-----------------------------------------------
----2---------2------3-----x--------------------------------------------------
----3---------0------0-----2--------------------------------------------------
 Verse-Listen to track for strumming-repeat x2                                
[ Tab from: http://www.guitartabs.cc/tabs/u/unwritten_law/shallow_acoustic_tab.html ]
--3------3-----3----3-----3-----3-----3-----3--------3----3-----3----3---3----
--3------3-----3----3-----3-----3-----3-----3--------3----3-----3----3---3----
--0------2-----0----2-----0-----0-----2-----0--------0----2-----0----2---0----
--2--x4--0-x4--0-x2-0-x2--2-x4--2-x4--0-x4--0-x8-----2-x4-0-x4--0-x2-0x2-2x4--
--3------x-----2----x-----2-----3-----x-----2--------3----x-----2----x---2----
--0------2-----3----2-----0-----0-----2-----3--------0----2-----3----2---0----
 Chorus-listen to track for strumming                                         

-3---3------------------------------------------------------------------------
-3---3------------------------------------------------------------------------
-2---0------------------------------------------------------------------------
-0---2-x4---------------------------------------------------------------------
-x---3------------------------------------------------------------------------
-2---0------------------------------------------------------------------------
  After this repeat intro-then repeat verse once- then repeat chorus          

--3-----3-----3-----3---------------------------------------------------------
--3-----3-----3-----3---------------------------------------------------------
--0-----0-----0-----2---------------------------------------------------------
--2-x4--2-x4--0-x2--0-x4------------------------------------------------------
--2-----3-----2-----x---------------------------------------------------------
--0-----0-----3-----2---------------------------------------------------------
 Bridge-listen to track to strumming and times to repeat      Well that's it  

------------------------------------------------------------------------------
------------------------------------------------------------------------------
------------------------------------------------------------------------------
------------------------------------------------------------------------------
------------------------------------------------------------------------------
------------------------------------------------------------------------------
 Guys, I would appriciate any comments. Enjoy                                 

Comments