Unwritten Law - Seeing Red Chords & Tabs

 

Seeing Red Chords & Tabs

Unwritten Law Chords & Tabs

Version: 1 Type: Bass Tab 0 ratings
1 star 2 stars 3 stars 4 stars 5 stars
comments

Seeing Red Bass Tab

Artist: Unwritten Law
Song: Seein' Red

Heres another tab by me, hope you like!

Verse:
G--------------------------
D--------------------------
A-1-1---3-3--1-1--2-2------
E---------------------0-0--
[ Tab from: http://www.guitartabs.cc/tabs/u/unwritten_law/seeing_red_btab.html ]
Chorus:
G------------------------------7-9----
D-----2-2------------4-4-9-9-9----9-8-
A---------------5-5-------------------
E-3-3-----3-5-------------------------

And I think thats it comments to LedZeppelin801@aol.com
Comments