Unwritten Law - Save Me Chords & Tabs

 

Save Me Chords & Tabs

Unwritten Law Chords & Tabs

Version: 4 Type: Tab 0 ratings
1 star 2 stars 3 stars 4 stars 5 stars
comments

Save Me Tab

   
 Standard Tuning
 e-b-g-d-a-e
 This is my first tab so dont be mad if it's wrong. I learned the song by listening to
it so it might be. THIS IS NOT COPIED. I DID THIS MYSELF. DONT ATTEMPT TO COPIE THIS
TAB FOR YOUR OWN USE PLEASE. I DONT WANT MY WORK TAKEN

----^#---- means upstroke
----#~~~~~means let it ring

____________________________________________________________________________


During the first verse efter he says, "with your big mouth, and...", begin
e---------------------------------------------------------------------------|
b---------------------------------------------------------------------------|
g-----5-4-5--5-4-5---5-4-5---5-4-5---5-4-5---5-4-5---5-4-5---5-4-5----------|
d----5-----5-------5-------5-------5--------5-------5-------5---------------|
a---------------------------------------------------------------------------|
e---------------------------------------------------------------------------|

When the singer says ,"you hate me", play
e---------------------------------------------------------------------------|
b---------------------------------------------------------------------------|
g----5---5---5---5---5---5---5---5---5---5---5---5---5---5---5---5----------|
d----5---5---5---5---5---5---5---5---5---5---5---5---5---5---5---5----------|
a----3---3---3---3---3---3---3---3---3---3---3---3---3---3---3---3----------|
e---------------------------------------------------------------------------|

When the singer says ,"you can't change...", move up a string and play
e---------------------------------------------------------------------------|
b---------------------------------------------------------------------------|
g---------------------------------------------------------------------------|
d----5---5---5---5---5---5---5---5---5---5---5---5---5---5---5---5----------|
a----5---5---5---5---5---5---5---5---5---5---5---5---5---5---5---5----------|
e----3---3---3---3---3---3---3---3---3---3---3---3---3---3---3---3----------|

When the singer says ,"well i'm wai-...", move up two frets and play
e---------------------------------------------------------------------------|
b---------------------------------------------------------------------------|
g---------------------------------------------------------------------------|
d----7-------7-------7-------7--------7--------7--------7--------7----------|
a----7-------7-------7-------7--------7--------7--------7--------7----------|
e----5-------5-------5-------5--------5--------5--------5--------5----------|

When the singer says,"well i'm waiting for my...",move down 4 frets and play
e---------------------------------------------------------------------------|
b---------------------------------------------------------------------------|
g---------------------------------------------------------------------------|
d----3-------3-------3-------3--------3--------3--------3--------3----------|
a----3-------3-------3-------3--------3--------3--------3--------3----------|
e----1-------1-------1-------1--------1--------1--------1--------1----------|

When the singer says ,"my wake up call...", play
e---------------------------------------------------------------------------|
b---------------------------------------------------------------------------|
g----5-------5-------5-------5--------5--------5--------5--------5----------|
d----5-------5-------5-------5--------5--------5--------5--------5----------|
a----3-------3-------3-------3--------3--------3--------3--------3----------|
e---------------------------------------------------------------------------|

When the singer says ,"my wake up call, everything, everythings...", play
e---------------------------------------------------------------------------|
b---------------------------------------------------------------------------|
g---------------------------------------------------------------------------|
d----5-------5-------5-------5--------5--------5--------5--------5----------|
a----5-------5-------5-------5--------5--------5--------5--------5----------|
e----3-------3-------3-------3--------3--------3--------3--------3----------|

When the singer says ,"everythings my fault...", repeat
e---------------------------------------------------------------------------|
b---------------------------------------------------------------------------|
g-----5-4-5--5-4-5--5-4-5---5-4-5---5-4-5----5-4-5---5-4-5---5-4-5----------|
d----5------5------5-------5-------5--------5-------5-------5---------------|
a---------------------------------------------------------------------------|
e---------------------------------------------------------------------------|

e---------------------------------------------------------------------------|
b---------------------------------------------------------------------------|
g-----5-4-5--5-4-5--5-4-5---5-4-5---5-4-5----5-4-5---5-4-5---5-4-5----------|
d----5------5------5-------5-------5--------5-------5-------5---------------|
a---------------------------------------------------------------------------|
e---------------------------------------------------------------------------|

e---------------------------------------------------------------------------|
b---------------------------------------------------------------------------|
g-------5-4-5----5-4-5----5-4-5----5-4-5----5-4-5----5-4-5---5-4-5----------|
d----5--------5--------5--------5--------5--------5-------5-----------------|
a---------------------------------------------------------------------------|
e---------------------------------------------------------------------------|

Then play twice
e---------------------------------------------------------------------------|
b---------------------------------------------------------------------------|
g----5---5---5---5---5---5---5---5---5---5---5---5---5---5---5---5----------|
d----5---5---5---5---5---5---5---5---5---5---5---5---5---5---5---5----------|
a----3---3---3---3---3---3---3---3---3---3---3---3---3---3---3---3----------|
e---------------------------------------------------------------------------|

e---------------------------------------------------------------------------|
b---------------------------------------------------------------------------|
g---------------------------------------------------------------------------|
d----5---5---5---5---5---5---5---5---5---5---5---5---5---5---5---5----------|
a----5---5---5---5---5---5---5---5---5---5---5---5---5---5---5---5----------|
e----3---3---3---3---3---3---3---3---3---3---3---3---3---3---3---3----------|

e---------------------------------------------------------------------------|
b---------------------------------------------------------------------------|
g---------------------------------------------------------------------------|
d----7-------7-------7-------7--------7--------7--------7--------7----------|
a----7-------7-------7-------7--------7--------7--------7--------7----------|
e----5-------5-------5-------5--------5--------5--------5--------5----------|

e---------------------------------------------------------------------------|
b---------------------------------------------------------------------------|
g---------------------------------------------------------------------------|
d----3-------3-------3-------3--------3--------3--------3--------3----------|
a----3-------3-------3-------3--------3--------3--------3--------3----------|
e----1-------1-------1-------1--------1--------1--------1--------1----------|

e---------------------------------------------------------------------------|
b---------------------------------------------------------------------------|
g----5-------5-------5-------5--------5--------5--------5--------5----------|
d----5-------5-------5-------5--------5--------5--------5--------5----------|
a----3-------3-------3-------3--------3--------3--------3--------3----------|
e---------------------------------------------------------------------------|

e---------------------------------------------------------------------------|
b---------------------------------------------------------------------------|
g---------------------------------------------------------------------------|
d----5-------5-------5-------5--------5--------5--------5--------5----------|
a----5-------5-------5-------5--------5--------5--------5--------5----------|
e----3-------3-------3-------3--------3--------3--------3--------3----------|

Then after the singer says,"everythings my fault", play
e---------------------------------------------------------------------------|
b---------------------------------------------------------------------------|
g---------------------------------------------------------------------------|
d----7---------7--------^7---------7--------^7--------7---------^7----------|
a----7---------7--------^7---------7--------^7--------7---------^7----------|
e----5---------5--------^5---------5--------^5--------5---------^5----------|

e---------------------------------------------------------------------------|
b---------------------------------------------------------------------------|
g---------------------------------------------------------------------------|
d----5---------5--------^5--------5--------^5---------5---------^5----------|
a----5---------5--------^5--------5--------^5---------5---------^5----------|
e----3---------3--------^3--------3--------^3---------3---------^3----------|

e---------------------------------------------------------------------------|
b---------------------------------------------------------------------------|
g---------------------------------------------------------------------------|
d----3--------3--------^3---------3--------^3---------3---------^3----------|
a----3--------3--------^3---------3--------^3---------3---------^3----------|
e----1--------1--------^1---------1-------^-1---------1---------^1----------|

e---------------------------------------------------------------------------|
b---------------------------------------------------------------------------|
g----5~~~~----4~~~~---------------------------------------------------------|
d----5~~~~----4~~~~----7------7-----^7------7-----^7------7-----^7----------|
a----3~~~~----2~~~~----7------7-----^7------7-----^7------7-----^7----------|
e----------------------5------5-----^5------5-----^5------5-----^5----------|
[ Tab from: http://www.guitartabs.cc/tabs/u/unwritten_law/save_me_tab_ver_4.html ]
e---------------------------------------------------------------------------|
b---------------------------------------------------------------------------|
g---------------------------------------------------------------------------|
d----5---------5--------^5--------5--------^5--------5----------^5----------|
a----5---------5--------^5--------5--------^5--------5----------^5----------|
e----3---------3--------^3--------3--------^3--------3----------^3----------|

e---------------------------------------------------------------------------|
b---------------------------------------------------------------------------|
g---------------------------------------------------------------------------|
d----2~~~~--3~~~~--7-----7-----^7-----7-----^7-----7-----^7------7----------|
a----2~~~~--3~~~~--7-----7-----^7-----7-----^7-----7-----^7------7----------|
e----0~~~~--1~~~~--5-----5-----^5-----5-----^5-----5-----^5------5----------|

e---------------------------------------------------------------------------|
b---------------------------------------------------------------------------|
g---------------------------------------------------------------------------|
d----5--------5-------^5-------5------^5-------5-------^5--------5----------|
a----5--------5-------^5-------5------^5-------5-------^5--------5----------|
e----3--------3-------^3-------3------^3-------3-------^3--------3----------|

e---------------------------------------------------------------------------|
b---------------------------------------------------------------------------|
g---------------------------------------------------------------------------|
d----3--------3-------^3-------3------^3-------3-------^3--------3----------|
a----3--------3-------^3-------3------^3-------3-------^3--------3----------|
e----1--------1-------^1-------1------^1-------1-------^1--------1----------|

e---------------------------------------------------------------------------|
b---------------------------------------------------------------------------|
g---------------------------------------------------------------------------|
d----2~~~~--3~~~~--7-----7-----^7-----7-----^7-----7-----^7------7----------|
a----2~~~~--3~~~~--7-----7-----^7-----7-----^7-----7-----^7------7----------|
e----0~~~~--1~~~~--5-----5-----^5-----5-----^5-----5-----^5------5----------|

e---------------------------------------------------------------------------|
b---------------------------------------------------------------------------|
g---------------------------------------------------------------------------|
d----5-------5-------^5-------5-------^5-------5-------2~~~~-----3----------|
a----5-------5-------^5-------5-------^5-------5-------2~~~~-----3----------|
e----3-------3-------^3-------3-------^3-------3-------0~~~~-----1----------|

e---------------------------------------------------------------------------|
b---------------------------------------------------------------------------|
g--------5-4-5--------5-4-5--------5-4-5--------5-4-5--------5-4-5----------|
d----5-----------5------------5------------5-------------5------------------|
a----3----------------------------------------------------------------------|
e----3----------------------------------------------------------------------|

e---------------------------------------------------------------------------|
b---------------------------------------------------------------------------|
g-----5-4-5--5-4-5--5-4-5--5-4-5--5-4-5--5-4-5--5-4-5-5-4-5-5-4-5-----------|
d----5------5------5------5------5------5------5-----5-----5-----5----------|
a---------------------------------------------------------------------------|
e---------------------------------------------------------------------------|

When the singer says ,"you were too much fun",the strumming comes in, so play
e----0--^0---0--^0---0--^0---0--^0---0--^0---0--^0---0--^0---0--^0----------|
b----0--^0---0--^0---0--^0---0--^0---0--^0---0--^0---0--^0---0--^0----------|
g----2--^2---2--^2---2--^2---2--^2---2--^2---2--^2---2--^2---2--^2----------|
d----3--^3---3--^3---3--^3---3--^3---3--^3---3--^3---3--^3---3--^3----------|
a----3--^3---3--^3---3--^3---3--^3---3--^3---3--^3---3--^3---3--^3----------|
e----0--^0---0--^0---0--^0---0--^0---0--^0---0--^0---0--^0---0--^0----------|

e----x--^x---x--^x---x--^x---x--^x---x--^x---x--^x---x--^x---x--^x---|
b----2--^2---2--^2---2--^2---2--^2---2--^2---2--^2---2--^2---2--^2---|
g----2--^2---2--^2---2--^2---2--^2---2--^2---2--^2---2--^2---2--^2---|
d----2--^2---2--^2---2--^2---2--^2---2--^2---2--^2---2--^2---2--^2---|
a----0--^0---0--^0---0--^0---0--^0---0--^0---0--^0---0--^0---0--^0---|
e----0--^0---0--^0---0--^0---0--^0---0--^0---0--^0---0--^0---0--^0---|

e----1---1---1---1---1---1---1---1---1---1---1---1---1---1---1---1----------|
b----1---1---1---1---1---1---1---1---1---1---1---1---1---1---1---1----------|
g----2---2---2---2---2---2---2---2---2---2---2---2---2---2---2---2----------|
d----3---3---3---3---3---3---3---3---3---3---3---3---3---3---3---3----------|
a----3---3---3---3---3---3---3---3---3---3---3---3---3---3---3---3----------|
e----1---1---1---1---1---1---1---1---1---1---1---1---1---1---1---1----------|

e---------------------------------------------------------------------------|
b---------------------------------------------------------------------------|
g----5---5---5---5---5---5---5---5------------------------------------------|
d----5---5---5---5---5---5---5---5---5---5---5---5---5---5---5---5----------|
a----3---3---3---3---3---3---3---3---5---5---5---5---5---5---5---5----------|
e------------------------------------3---3---3---3---3---3---3---3----------|

Then play twice
e---------------------------------------------------------------------------|
b---------------------------------------------------------------------------|
g----5---5---5---5---5---5---5---5---5---5---5---5---5---5---5---5----------|
d----5---5---5---5---5---5---5---5---5---5---5---5---5---5---5---5----------|
a----3---3---3---3---3---3---3---3---3---3---3---3---3---3---3---3----------|
e---------------------------------------------------------------------------|

e---------------------------------------------------------------------------|
b---------------------------------------------------------------------------|
g---------------------------------------------------------------------------|
d----5---5---5---5---5---5---5---5---5---5---5---5---5---5---5---5----------|
a----5---5---5---5---5---5---5---5---5---5---5---5---5---5---5---5----------|
e----3---3---3---3---3---3---3---3---3---3---3---3---3---3---3---3----------|

e---------------------------------------------------------------------------|
b---------------------------------------------------------------------------|
g---------------------------------------------------------------------------|
d----7-------7-------7-------7--------7--------7--------7--------7----------|
a----7-------7-------7-------7--------7--------7--------7--------7----------|
e----5-------5-------5-------5--------5--------5--------5--------5----------|

e---------------------------------------------------------------------------|
b---------------------------------------------------------------------------|
g---------------------------------------------------------------------------|
d----3-------3-------3-------3--------3--------3--------3--------3----------|
a----3-------3-------3-------3--------3--------3--------3--------3----------|
e----1-------1-------1-------1--------1--------1--------1--------1----------|

e---------------------------------------------------------------------------|
b---------------------------------------------------------------------------|
g----5-------5-------5-------5--------5--------5--------5--------5----------|
d----5-------5-------5-------5--------5--------5--------5--------5----------|
a----3-------3-------3-------3--------3--------3--------3--------3----------|
e---------------------------------------------------------------------------|

e---------------------------------------------------------------------------|
b---------------------------------------------------------------------------|
g---------------------------------------------------------------------------|
d----5-------5-------5-------5--------5--------5--------5--------5----------|
a----5-------5-------5-------5--------5--------5--------5--------5----------|
e----3-------3-------3-------3--------3--------3--------3--------3----------|

Then repeat till end of song
e---------------------------------------------------------------------------|
b---------------------------------------------------------------------------|
g----5---5---5---5---5---5---5---5---5---5---5---5---5---5---5---5----------|
d----5---5---5---5---5---5---5---5---5---5---5---5---5---5---5---5----------|
a----3---3---3---3---3---3---3---3---3---3---3---3---3---3---3---3----------|
e---------------------------------------------------------------------------|

e---------------------------------------------------------------------------|
b---------------------------------------------------------------------------|
g----4---4---4---4---4---4---4---4---4---4---4---4---4---4---4---4----------|
d----4---4---4---4---4---4---4---4---4---4---4---4---4---4---4---4----------|
a----2---2---2---2---2---2---2---2---2---2---2---2---2---2---2---2----------|
e---------------------------------------------------------------------------|

e---------------------------------------------------------------------------|
b---------------------------------------------------------------------------|
g---------------------------------------------------------------------------|
d----7---7---7---7---7---7---7---7---7---7---7---7---7---7---7---7----------|
a----7---7---7---7---7---7---7---7---7---7---7---7---7---7---7---7----------|
e----5---5---5---5---5---5---5---5---5---5---5---5---5---5---5---5----------|

e---------------------------------------------------------------------------|
b---------------------------------------------------------------------------|
g---------------------------------------------------------------------------|
d----3---3---3---3---3---3---3---3---3---3---3---3---3---3---3---3----------|
a----3---3---3---3---3---3---3---3---3---3---3---3---3---3---3---3----------|
e----1---1---1---1---1---1---1---1---1---1---1---1---1---1---1---1----------|

Then, if you want you can end the song with
e---------------------------------------------------------------------------|
b---------------------------------------------------------------------------|
g--------------------------------------5~~~~~~~~----------------------------|
d----3~~~~~~~~--------5~~~~~~~~--------5~~~~~~~~----------------------------|
a----3~~~~~~~~--------5~~~~~~~~--------3~~~~~~~~----------------------------|
e----1~~~~~~~~--------3~~~~~~~~---------------------------------------------|
Comments