Unwritten Law - Save Me Chords & Tabs

 

Save Me Chords & Tabs

Unwritten Law Chords & Tabs

Version: 2 Type: Tab 0 ratings
1 star 2 stars 3 stars 4 stars 5 stars
comments

Save Me Tab

   
unwritten law - save me
by Jason scott(ddashboardemoguy@aol.com)

Tune down 1/2 a step
Eb,Ab,Db,Gb,Bb,Eb

Intro
eb--------------------------------------------------------|
Bb-----3-2---3-2---3-2---3-2------------------------------|
Gb--------------------------------------------------------|
Db---0----------------------------------------------------|2x
Ab---------0----------------------------------------------|
Eb---------------2-----3----------------------------------|

Verse
eb--------------------------------------------------------|
Bb---3---2---3---3----------------------------------------|
Gb---2---2------------------------------------------------|
Db-------2------------------------------------------------|2x
Ab---------------2----------------------------------------|
Eb-----------2---3----------------------------------------|

guitar-2
Verse
eb--------------------------------------------------------|
Bb-----3-2---3-2---3-2---3-2------------------------------|
Gb--------------------------------------------------------|
Db---0----------------------------------------------------|3x
Ab---------0----------------------------------------------|
Eb---------------2-----3----------------------------------|

[ Tab from: http://www.guitartabs.cc/tabs/u/unwritten_law/save_me_tab_ver_2.html ]
Chorus
eb---------------------------------------------------------|
Bb---------------------------------------------------------|
Gb---7---------------7-------------------------------------|
Db---7---7---4---5---7---5---------------------------------|
Ab---5---7---4---5---5---5---------------------------------|
Eb-------5---2---3-------3---------------------------------|

Bridge
eb-----------------------------------------------------------|
Bb-----------------------------------------------------------|
Gb---7-------------------------------------------------------|
Db---7---7---4---5---7---------------------------------------|
Ab---5---7---4---5---7---------------------------------------|
Eb-------5---2---3---5---------------------------------------|

Acoustic Chorus
eb--------------------------------------------------------|
Bb---3---2---3---3---3------------------------------------|
Gb---2---2-----------2------------------------------------|
Db-------2------------------------------------------------|
Ab---------------2----------------------------------------|
Eb-----------2---3----------------------------------------|

End Chorus
eb----------------------|
Bb----------------------|
Gb---7------------------|
Db---5---7--------------|
Ab---5---5--------------|
Eb-------5--------------|

End
eb-------------|
Bb-------------|
Gb---7---------|
Db---5---------|
Ab---5---------|
Eb-------------|


Intro-2x
verse-2x
chorus
verse-2x
chorus-2x
bridge-3x
Verse-4x
Acoustic Chorus
Chorus
End Chorus-5x
End


This song Is so AWSOME-
P.S Listin to song to play tabs
Comments