Unwritten Law - Rest Of My Life Chords & Tabs

 

Rest Of My Life Chords & Tabs

Unwritten Law Chords & Tabs

Version: 1 Type: Tab 0 ratings
1 star 2 stars 3 stars 4 stars 5 stars
comments

Rest Of My Life Tab

e|---------------3---------------------3---------------------3----------3-----------3---------3--| 
B|------------3----3-----------------3---3-----------------3---3------3---3-------3---3-------3--| 
G|----------0--------0-------------0-------0---------------------0----------0-----------0--------| 
D|-------------------------------------------0-----------0---------------------------------------| 
A|--0-2-0------------------0-2-0-----------------0-2-0-3------------2----------0-----------------| 
E|--------3------------2---------0----------------------------------------------------------2----| 

Verse 
Guitar 1 (Clean) 
e|--7-----7-5-----5-7-----7-5-----5-8-----8-7-----7-5-----5--|--3-2------| 
B|----0-------0-------0-------0-------0-------0-------0------|------3----| 
G|------7-------7-------7-------7-------7-------7-------7----|--------0--| 
D|-----------------------------------------------------------|-----------| 
A|-----------------------------------------------------------|-----------| 
E|-----------------------------------------------------------|-----------| 

Guitar 2 (Clean Acoustic) 
e|--3--3--3--3--| 
B|--3--3--3--3--| 
G|--0--0--0--2--| 
D|--0--2--2--0--| Listen to the song to get the right rythm and timing. 
A|--2--2--3-----| 
E|--3--0--------| 

Chorus 
Guitar 1 (Distorted) 
e|-----------------------------| 
B|-----------------------------| 
G|--5---7---------------5---7--| 
D|--5---7---5--4--2--5--5---7--| Play the chords once and let them ring. 
A|--3---5---5--4--2--5--3---5--| 
E|----------3--2--0--3---------| 

Guitar 2 (Clean Acoustic) 
e|-----------------------------| 
B|-----------------------------| 
G|--5---7---------------5---7--| 
D|--5---7---5--4--2--5--5---7--| Listen to the song to get the right rythm and timing. 
A|--3---5---5--4--2--5--3---5--| 
E|----------3--2--0--3---------| 

Play Verse 

Play Chorus 

Bridge 1 
Guitar 1 (Distorted) 
e|---------------| 
B|---------------| 
G|--12---16--19--| 
D|---------------| Listen to the song to get the right rythm and timing. 
A|--10---14--17--| 
E|---------------| 

Guitar 2 (Clean Acoustic) 
e|---------| 
B|---------| 
G|--5---7--| 
D|--5---7--| Listen to the song to get the right rythm and timing. 
A|--3---5--| 
E|---------| 

Play Chorus 
[ Tab from: http://www.guitartabs.cc/tabs/u/unwritten_law/rest_of_my_life_tab.html ]
Bridge 2 
Guitar 1 (Distorted) 
e|----------------------------------------------------------------------- 
B|----------------------------------------------------------------------- 
G|--9-9-9-9--12-11--9-9--4--4--12-11--9-9--5--5--9-9-9-9-9-9-9-9--4-4-4-- 
D|----------------------------------------------------------------------- 
A|--7-7-7-7--10--9--7-7--2--2--10--9--7-7--3--3--7-7-7-7-7-7-7-7--2-2-2-- 
E|----------------------------------------------------------------------- 

-----------------------------------------------------| 
-----------------------------------------------------| 
--9-9-9-9--12-11--9-9--4--4--12-11--9-9--5-----5-----| 
--------------------------------------------------7--| Listen to the song to get the right rythm and timing. 
--7-7-7-7--10--9--7-7--2--2--10--9--7-7--3-----3-----| 
--------------------------------------------------5--| 

Last Chorus 
Guitar 1 
e|--7-----7-5-----5-7-----7-5-----5--|-------------------------------------| 
B|----0-------0-------0-------0------|-------------------------------------| 
G|------7-------7-------7-------7----|--------------5---7---5---7---5---7--| Play the chords 
D|-----------------------------------|--5--4--2--5--5---7---5---7---5---7--| once and let them ring. 
A|-----------------------------------|--5--4--2--5--3---5---3---5---3---5--| 
E|-----------------------------------|--3--2--0--3-------------------------| 

[-------------Clean-----------------][------------Distorted---------------] 

Guitar 2 (Clean Acoustic) 
e|-----------------------------------|-------------------------------------| 
B|-----------------------------------|-------------------------------------| 
G|-----------------------------------|--------------5---7---5---7---5---7--| Listen to the song to 
D|-----------------------------------|--5--4--2--5--5---7---5---7---5---7--| get the right rythm and 
A|-----------------------------------|--5--4--2--5--3---5---3---5---3---5--| timing. 
E|-----------------------------------|--3--2--0--3-------------------------| 

Outro 
Guitar 2 (Clean Acoustic) 
e|---------------3---------------------3---------------------3--------3---------3----------3-----------3--| 
B|------------3----3-----------------3---3----------------------3---------3---------3---------3-------3---| 
G|----------0--------0-------------0-------0---------------------------------------------------------0----| 
D|-------------------------------------------0------------0-----------------------------------------0-----| 
A|--0-2-0------------------0-2-0-----------------0-2-0-3-----------2---------0---------------------2------| 
E|--------3------------2---------0------------------------------------------------------2---------3-------| 

Comments