Unwritten Law - Lonesome Chords & Tabs

 

Lonesome Chords & Tabs

Unwritten Law Chords & Tabs

Version: 2 Type: Tab 0 ratings
1 star 2 stars 3 stars 4 stars 5 stars
comments

Lonesome Tab

Song : Lonesome
Artist : Unwritten Law
Album : ?

Sean Beardmore
Tuning: Standard

Intro

e  ---------------------------------------------
b  ---------------------------------------------
g  ---------------------------------------------
d  ----0h2----------0h2-------------------------
a  --------0h2--0h2-------etc-------------------
E  --0------------------------------------------

Other Bit

e  ---------------------------------------------
b  ---------------------------------------------
g  ---------------------------------------------
d  ----0h2--------------------------------------
a  ---------------------------------------------
E  --0-----5p3--3--3-3/2-0----------------------

Leading Into Verse (Chords)

e  ---------------------------------------------
b  ---------------------------------------------
g  --2-----4------------------------------------
d  --2--4--4------------------------------------
a  --0--4--2------------------------------------
E  -----2---------------------------------------

Verse

"Well I'm Here.."

Bass Line

e  ---------------------------------------------
b  ---------------------------------------------
g  ---------------------------------------------
d  ---------------------------------------------
a  ---------------------------------------------
E  --0--4--5--7---------------------------------

*Hamronics Played Above These Frets

e  --*12------*19-------------------------------
b  ------*12------------------------------------
g  ---------------------------------------------
d  ---------------------------------------------
a  ---------------------------------------------
E  ---------------------------------------------

Ska Guitar Riff

"Same Old Episode For Me.."
[ Tab from: http://www.guitartabs.cc/tabs/u/unwritten_law/lonesome_tab_ver_2.html ]
e  --4-x-5-4-x-----------------------------------
b  --5-x-5-5-x--etc------------------------------
g  ---------------------------------------------
d  ---------------------------------------------
a  ---------------------------------------------
E  ---------------------------------------------

Chorus

"Association With The Past.."

e  ---------------------------------------------
b  ---------------------------------------------
g  -----2---------------------------------------
d  --4--2--2------------------------------------
a  --4--0--2------------------------------------
E  --2-----0------------------------------------

"Don't Run.."

e  ---------------------------------------------
b  ---------------------------------------------
g  ---------------------------------------------
d  --2--6---------------------------------------
a  --2--6---------------------------------------
E  --0--4---------------------------------------

"Cause You Might Find.." (Muted Chord)

e  ---------------------------------------------
b  ---------------------------------------------
g  ---------------------------------------------
d  --7-7-7--------------------------------------
a  --7-7-7--------------------------------------
E  --5-5-5--------------------------------------

"and I Still Feel So Lonesome.."

e  ---------------------------------------------
b  ---------------------------------------------
g  --------------------------------------4------
d  --9-----------7-----------6-----------4------
a  --9-----------7-----------6-----------2------
E  --7--0-7-0-7--5--0-5-0-5--4--0-4-0-4---------

Outro (Chords)

e  ---------------------------------------------
b  ---------------------------------------------
g  --2-----4------------------------------------
d  --2--4--4--2---------------------------------
a  --0--4--2--2---------------------------------
E  -----2-----0---------------------------------


The film clip for this is really good, it has one of the guys beating 
people
up as the band walks down the street, its really funny!
Comments