Unwritten Law - Holiday Chords & Tabs

 

Holiday Chords & Tabs

Unwritten Law Chords & Tabs

Version: 2 Type: Bass Tab 0 ratings
1 star 2 stars 3 stars 4 stars 5 stars
comments

Holiday Bass Tab

   
FTH80:G D A E ; Generated by Fast Tab, do not erase
====================
>From            : Matt.Fritz
Artist          : Unwritten Law
Bass Performance: Holiday
Strings: E ,A ,D ,G 
Symbols explanations:
  r:rest


INTRO                         
G -----------------------------------------------------------
D -----------------------------------------------------------
A --2-----2--2--2--2--2--2--2--2-----------------------------
E --------------------------------2--2--2--2--5--5--5--5-----
      r                                                                         

1st VERSE  x2               
G -------------------------------------------------------------------------------
D -------------------------------------------------------------------------------
A -----2--2-----2--2-----5--5--5--2--2--2--5--5--5--2--2--2--2-------------------
E -------------------------------------------------------------------------------
            r        r                                                          

2nd VERSE   x2                  
G -------------------------------------------------------------------------------
D -------------------------------------------------------------------------------
A -----2--2-----2--2-----5--5--5--2--2--2--5--5--5--2--2--2----------------------
E -------------------------------------------------------------------------------
            r        r                                                          
[ Tab from: http://www.guitartabs.cc/tabs/u/unwritten_law/holiday_btab_ver_2.html ]
THIS IS THE PART WHERE IT GOES LIKE THIS "AND I JUST WANT TO PLAY"
G ----------------------------------------------------
D ----------------------------------------------------
A -----2--2--2--2--2--2--2--2--5--5--5--5-------------   x1
E -----------------------------------------5--5--5--5-
                                                                                
THEN THIS x1                                                                     
G--------------------------------------------------------------------------------------
D--------------------------------------------------------------------------------------
A-2--2--2--2--2--2--2--2--5--5--5--5----------7--7--7--7--7--7--7--7--9--9--9--9--9--9- 
E-----------------------------------5--5--5--5-----------------------------------------

INTERLUDE "IM SORRY,"  x2                                                       
G --------------------------------
D --------------------------------
A --------------7--7-------7--7---
E --4--4--2--2--------2--2--------
THEN x1
G--------------------------------------------------------------------------------------
D--------------------------------------------------------------------------------------
A--------------------------------------------------5--5--5--5--5--5--5--5--------------
E--4--4--4--4--4--4--4--4--0--0--0--0--0--0--0--0--------------------------5--5--5--5-0

CHOURS "LIFE'S A HOLIDAY"
G ------------------------------------------------------
D ------------------------------------------------------
A --2--2--2--2--2--2--2--2------------------------------
E --------------------------2--2--2--2--5--5--5--5------

THAT SHOULD BE IT 
Comments