Unwritten Law - Harmonic Chords & Tabs

 

Harmonic Chords & Tabs

Unwritten Law Chords & Tabs

Version: 3 Type: Tab 0 ratings
1 star 2 stars 3 stars 4 stars 5 stars
comments

Harmonic Tab

   
Song: harmonics
Artist: unwritten law
Album: unwritten law
Submission: Joel Crawford > madsnake91@hotmail.com

I seen this band live so this tab aint bull shit tigers.

e-----------------------------------------------------|
b-----------------------------------------------------|
G-----------------------------------------------------|
D--------9--------9-----9--------9--------9-----9-----|
A--7--7-----7--7-----7-----7--7-----7--7-----7--------|
E-----------------------------------------------------|

e-----------------------------------------------------|
b-----------------------------------------------------|
G-----------------------------------------------------|
D--------9--------9-----9--------9--------9-----9-----|
A--9--9-----9--9-----9-----9--9-----9--9-----9--------|
E-----------------------------------------------------|

e-----------------------------------------------------|
b-----------------------------------------------------|
G-----------------------------------------------------|
D--------9--------9-----9--------9--------9-----9-----|
A--0--0-----0--0-----0-----0--0-----0--0-----0--------|
E-----------------------------------------------------|
[ Tab from: http://www.guitartabs.cc/tabs/u/unwritten_law/harmonic_tab_ver_3.html ]
e-----------------------------------------------------|
b-----------------------------------------------------|
G-----------------------------------------------------|
D--------9--------9-----9--------9--------9-----9-----|
A--7--7-----7--7-----7-----7--7-----7--7-----7--------|
E-----------------------------------------------------|

Then the harmonics are played over the top of that riff...

e-----------------------------------------------------|
b--------------~12~----------------~19~---------------|
G----~12~----------~12~----~12~--------~19~----~19~---|
D----------------------~12~----------------~19~-------|
A-----------------------------------------------------|
E-----------------------------------------------------|

Then we get some vicious power chords......

    Eii   F#   A   Eii
e--------------------------------|
b--------------------------------|
G----9--------------9------------|
D----9----4----7----9------------|
A----7----4----7----7------------|
E---------2----5-----------------|

There u go trend setters, and never forget,

  "...just cause we rock,....does'nt mean we're made of stone..."

                                              -cheers-
Comments