Unwritten Law - Cailin Chords & Tabs

 

Cailin Chords & Tabs

Unwritten Law Chords & Tabs

Version: 2 Type: Tab 0 ratings
1 star 2 stars 3 stars 4 stars 5 stars
comments

Cailin Tab

   
					Cailin
				   by Unwritten Law
Transcribed by Tesscar				

"Well, it seem like yesterday 
When the world was looking dark, it felt so cold and gray
And why the hell am I even here ?
What's the purpose, all I feel is guilt and hate and fear

(play 4 times)
V----------------------------------------------------------------------------------------------
E--------------------------------------------------------------------0-------------------------
R----------------0----------------0---------------0-----------0--------------------------------
S-----------0----------------0----------------0-------------------0----------------------------
E----------------------------------------------------------------------------------------------
 ---3---3------------5---5------------7---7-----------8---8------------------------------------

Oh ....
Yea, Yea, Yea
Oh ....

(play 4 times)
B----------------------------------------------------------------------------------------------
R-------------------------------0--------------------------------------------------------------
I-----------0-----------0----------------------------------------------------------------------
D-----------0---------------0------------------------------------------------------------------
G----------------------------------------------------------------------------------------------
E---3---3-------8---8--------------------------------------------------------------------------

"Till that day you came along
My heart was empty like the soul was missing from my song
And I thought I loved a few
Yea - No one ever made me feel the way that you do.

(play 4 times)
V----------------------------------------------------------------------------------------------
E--------------------------------------------------------------------0-------------------------
R----------------0----------------0---------------0-----------0--------------------------------
S-----------0----------------0----------------0-------------------0----------------------------
E----------------------------------------------------------------------------------------------
 ---3---3------------5---5------------7---7-----------8---8------------------------------------


C               D                  G   Em        C  
"And hey little girl look what you do, oh I love you
C          D            G
Hey little girl, I love you


(play 4 times)
B----------------------------------------------------------------------------------------------
R-------------------------------0--------------------------------------------------------------
I-----------0-----------0----------------------------------------------------------------------
D-----------0---------------0------------------------------------------------------------------
G----------------------------------------------------------------------------------------------
E---3---3-------8---8--------------------------------------------------------------------------


"Well, I know I'm not always right 
And girl it breaks my heart when I don't have to see you cry
So many things I want to say
Yea, knowing your the reason that I'm here today
[ Tab from: http://www.guitartabs.cc/tabs/u/unwritten_law/cailin_tab_ver_2.html ]
(play 4 times)
V----------------------------------------------------------------------------------------------
E--------------------------------------------------------------------0-------------------------
R----------------0----------------0---------------0-----------0--------------------------------
S-----------0----------------0----------------0-------------------0----------------------------
E----------------------------------------------------------------------------------------------
 ---3---3------------5---5------------7---7-----------8---8------------------------------------

Em               G               C
"Whenever you're here, just stay near
C            D              
We'll be all right, yea all right


C           D                  G   Em        C  
"Hey little girl look what you do, oh I love you
C          D                   G           Em
Hey little girl, look what you do, and you do
C           D                   G              Em         C 
When all my love starts running thin, I've got you my own Cailin
C          D            G
My little girl, I love you
G  G    G
I love you ...
**************************
**************************
Yea hit me ... (SOLO) =>


S---3----5p3--3----3----5p3---3---5p3--3---7p3---3---5p3---3---3---5p3--3---3---5p3--3---3------
O---3----3----3----3----3-----3---3----3---3-----3---3-----3---3---3----3---3---3----3---3------
L---0----0----0----0----0-----0---0----0---0-----0---0-----0---0---0----0---0---0----0---0------
O-----------------------------------------------------------------------------------------------
 -----------------------------------------------------------------------------------------------
 -----------------------------------------------------------------------------------------------

 ---5p3--3--------------------3-----3-----------------------------------------------------------
 ---3----3--------------------3h5---3---5---3---------------------------------------------------
 ---0----0---4p0--0--4p0--0---0-----0---0---0---------------------------------------------------
 -----------------------------------------------------------------------------------------------
 -----------------------------------------------------------------------------------------------
 -----------------------------------------------------------------------------------------------

Em               G 
Yea, I'll be all right
Em             G 
But I need you close, please stay tonight
Em                G               C
As long as you're here, just stay near
C            D              
We'll be all right, yea all right

C           D                  G   Em        C  
"Hey little girl look what you do, oh I love you
C          D                   G           Em
Hey little girl, look what you do, and you do
C           D                   G              Em         C 
When all my love starts running thin, I've got you my own Cailin
C          D
Hey little girl who I love
C          D
Yea little girl who I love
C           D                G     D    Em
Hey, little girl know I love you
Comments