Unwritten Law - Cailin Chords & Tabs

 

Cailin Chords & Tabs

Unwritten Law Chords & Tabs

Version: 1 Type: Tab 0 ratings
1 star 2 stars 3 stars 4 stars 5 stars
comments

Cailin Tab

					Cailin
				   by Unwritten Law
				  from Unwritten Law
				
				tHIS IS THE WHOLE SONG
				  iTS PRETTY EASY

			       Tabbed by Marc Moraitis


"Well, it seems like yesterday.........."

V----------------------------------------------------------------------------------------------
E--------------------------------------------------------------------0-------------------------
R----------------0----------------0---------------0-----------0--------------------------------
S-----------0----------------0----------------0-------------------0----------------------------
E----------------------------------------------------------------------------------------------
 ---3---3------------5---5------------7---7-----------8---8------------------------------------

play 4 times

B----------------------------------------------------------------------------------------------
R-------------------------------0--------------------------------------------------------------
I-----------0-----------0----------------------------------------------------------------------
D-----------0---------------0------------------------------------------------------------------
G---------------3---3--------------------------------------------------------------------------
E---3---3--------------------------------------------------------------------------------------

Then it leads back into the verse for 4 times, then the chorus goes something like this:

"A little girl............."

C----------------------------------------------------------------------------------------------
H----------------------------------------------------------------------------------------------
O----------------------------------------------------------------------------------------------
R---5--5--5--5--5--5--5--5--7--7--7--7--7--7--7--7---------------------------------------------
U---3--3--3--3--3--3--3--3--5--5--5--5--5--5--5--5--5--5--5--5--5--5--5--5---------------------
S---------------------------------------------------3--3--3--3--3--3--3--3---------------------


-----------------------------------------------------------------------------------------------
-----------------------------------------------------------------------------------------------
-----------------------------------------------------------------------------------------------
----------------------------5--5--5--5--5--5--5--5--7--7--7--7--7--7--5--4---------------------
----2--2--2--2--2--2--2--2--3--3--3--3--3--3--3--3--5--5--5--5--5--5--3--2---------------------
----0--0--0--0--0--0--0--0---------------------------------------------------------------------

Little Chorus thing
[ Tab from: http://www.guitartabs.cc/tabs/u/unwritten_law/cailin_tab.html ]
-----------------------------------------------------------------------------------------------
-------0-----0-----0-----0-----0---------------------------------------------------------------
----0-----0-----0-----0-----0------------------------------------------------------------------
----0-----0-----0-----0-----0------------------------------------------------------------------
-----------------------------------------------------------------------------------------------
-----------------------------------------------------------------------------------------------

Verse 4 times

"Whenever you're here............"

B----------------------------------------------------------------------------------------------
R-------------------------------------------------------------------------Play this power chord
I-------------------------------------------------------------------------------8 times--------
D------------------------------------------------------5--5--5--5--5--5--5--5-----7------------
G---2-2-2-2-2----------4--5--5--5--5--5-----5-----5----3--3--3--3--3--3--3--3-----5------------
E---0-0-0-0-0-------0--2--3--3--3--3--3-----3-----3--------------------------------------------
(2)

Chorus 5 times

Then there is  Bass Line

Here is the solo, its pretty hard if you have small hands.

S---3----5p3--3----3----5p3---3---5p3--3---7p3---3---5p3---3---3---5p3--3---3---5p3--3---3------
O---3----3----3----3----3-----3---3----3---3-----3---3-----3---3---3----3---3---3----3---3------
L---0----0----0----0----0-----0---0----0---0-----0---0-----0---0---0----0---0---0----0---0------
O-----------------------------------------------------------------------------------------------
 -----------------------------------------------------------------------------------------------
 -----------------------------------------------------------------------------------------------

 ---5p3--3--------------------3-----3-----------------------------------------------------------
 ---3----3--------------------3h5---3---5---3---------------------------------------------------
 ---0----0---4p0--0--4p0--0---0-----0---0---0---------------------------------------------------
 -----------------------------------------------------------------------------------------------
 -----------------------------------------------------------------------------------------------
 -----------------------------------------------------------------------------------------------

Repeat Solo (Play total of 2 times thru)

B----------------------------------------------------------------------------------------------
R------------------------------------------------------------------------play this power chord-
I------------------------------------------------------------------------------------8 times---
D------------------------------------------------------------5--5--5--5--5--5--5--5----7-------
G---2-2-2-2-2----------4--5--5--5--5--5---(3x)----5-----5----3--3--3--3--3--3--3--3----5-------
E---0-0-0-0-0-------0--2--3--3--3--3--3-----------3-----3--------------------------------------
(2)

Chorus 4 times

That is the whole song.  It's pretty easy.  I learned it right away.

Comments