Unwritten Law - Cailin Chords & Tabs

 

Cailin Chords & Tabs

Unwritten Law Chords & Tabs

Version: 2 Type: Bass Tab 0 ratings
1 star 2 stars 3 stars 4 stars 5 stars
comments

Cailin Bass Tab

   
Song: Cailin
Band: Unwritten Law
Album: Unwritten Law
tabbed by: Greg Costa (costagreg@hotmail.com)
One Tonne Turtle bassist (http://onetonneturtle.cjb.net)

h = hammer down
p = pull off
0:44 = what time tab is up to on the song

Had lots of requests to tab this song, so thankyou to the people that made
me spend my homework time on this tab :)

This is a fairly easy song to play, alot of the stuff is repeated. If you 
want
a cool unwritten law song with lots of energy, get the Lonesome tabs.


Start of song has no bass.

0:29
G:----------------------------------------------------------------------------
D:----------2-2-------------------------------------2-2-----------------------
A:---------------3-3--2---------2-2--3-3--2--------------3-3--2---------------
E:--3--5-5--------------3--5-5--------------3--5-5----------------------------

0:44
G:----------------------------------------------------------------------------
D:----------------------------------------------------------------------------
A:----------2-2--3-3--2-3-3-3-3-3-3-3-3-5-5-5-5-5-5-5-5-----------------------
E:--3--5-5----------------------------------------------3-3-3-3-3-3-3-3-------

0:55
G:----------------------------------------------------------------------------
D:--2-2-2-2-2-2-2-2-----------------------------------------------------------
A:------------------3-3-3-3-3-3-3-3-5-5-5-5-5-3-2-----------------------------
E:------------------------------------------------5---------------------------

1:02
G:----------------------------------------------------------------------------
D:----------------------------------------------------------------------------
A:-------2-3-3-------2-3-3-------2-3-3-------2-3--3-3--3-3--------------------
E:--3-3---------3-3---------3-3---------3-3-----------------------------------

1:11
G:----------------------------------------------------------------------------
D:------------2-2-------------------------------------2-2---------------------
A:-----------------3-3--2---------2-2--3-3--2--------------3-3--2-------------
E:--3-3--5-5--------------3--5-5--------------3--5-5--------------------------

1:25					  h
G:----------------------------------------------------------------------------
D:----------------------------------------------------------------------------
A:------------2-2--3-3--2-----------------------------------------------------
E:--3-3--5-5---------------0-0-0-0-0----0-2--3-3-3-3-3--3--3------------------

1:35
G:----------------------------------------------------------------------------
D:--------------------------------------------5-------------2-2-4-4-----------
A:--3-3-3-3-3-3-3-3-5-5-5-5-5-5-5-5-3-3-3-3-3---3-3-5-5-5-5-------------------
E:----------------------------------------------------------------------------

1:44
G:----------------------------------------------------------------------------
D:--5-5-5-5-5-7-5-4-2-2-2-5--4-2-------------5---------------4-7-4------------
A:-------------------------------5-3-3-3-3-3---3-3-5-5-5-5-5------------------
E:----------------------------------------------------------------------------

1:54			           h p
G:----------------------------------------------------------------------------
D:--2-2-2-2-2-2-2-2---------5-5--4-5-4------------5-------------2-2-4-4-------
A:--------------------------------------3-3-3-3-3---3-3-5-5-5-5---------------
E:------------------3-3-3-3---------------------------------------------------
[ Tab from: http://www.guitartabs.cc/tabs/u/unwritten_law/cailin_btab_ver_2.html ]
2:03
G:----------------------------------------------------------------------------
D:--5-5-5-5-5-7-5-4-2-2-2-5--4-2-------------5--------------------------------
A:-------------------------------5-3-3-3-3-3---3-3-5-5-5-5-5-3-2--------------
E:---------------------------------------------------------------5------------

2:13
G:----------------------------------------------------------------------------
D:----------------------------------------------------------------------------
A:------------2-2--3-3----------2-2--3-3--------------------------------------
E:--3-3--5-5------------3--5-5------------------------------------------------

2:22
G:----------------------------------------------------------------------------
D:------------2-2-------------------2-2---------------------------------------
A:-----------------3-3--2----------------3-3----------------------------------
E:--3-3--5-5--------------3-3--5-5--------------------------------------------

2:31
G:----------------------------------------------------------------------------
D:----------------------------------------------------------------------------
A:------------------2-2-2---3-3-3-----------------0-1-2-2-2-------------------
E:--3-3-3---5-5-5-------------------3-3-3---5-5-5-----------------------------

2:39			    h
G:----------------------------------------------------------------------------
D:----------------------------------------------------------------------------
A:--1-2-3-3-3-2---------------------------------------------------------------
E:--------------0-0-0-0-0--0-2--3-3-3-3-3---3--3-3----------------------------

2:45		 h			       h
G:----------------------------------------------------------------------------
D:----------------------------------------------------------------------------
A:----------------------------------------------------------------------------
E:--0-0-0-0-0--0-2--3-3-3-3-3-----0-0-0-0-0--0-2--3-3-3-3-3--3--3-------------

2:55
G:----------------------------------------------------------------------------
D:--------------------------------------------5-------------2-2-4-4-5-5-5-5-5-
A:--3-3-3-3-3-3-3-3-5-5-5-5-5-5-5-5-3-3-3-3-3---3-3-5-5-5-5-------------------
E:----------------------------------------------------------------------------

3:06
G:----------------------------------------------------------------------------
D:--7-5-4-2-2-2-5--4-2-------------5---------------4-7-4-2-2-2-2-2-2-2-2------
A:---------------------5-3-3-3-3-3---3-3-5-5-5-5-5----------------------------
E:----------------------------------------------------------------------------

3:16		  h p
G:----------------------------------------------------------------------------
D:----------5-5-4-5-4--------------------------2-2-4-4-5-5-5-5-5--------------
A:---------------------3-3-3-3-3-3-3-3-5-5-5-5--------------------------------
E:--3-3-3-3-------------------------------------------------------------------


3:25						       h   h
G:----------------------------------------------------------------------------
D:--7-5-4-2-2-2-5--4-2-------------5-------------4-4-0-4-0-4-----------5------
A:---------------------5-3-3-3-3-3---3-3-5-5-5-5-------------3-3-3-3-3---3-3--
E:----------------------------------------------------------------------------

3:35	          h   h
G:----------------------------------------------------------------------------
D:----------4-4-0-4-0-4-----------5---------4-7---4-2-------------------------
A:--5-5-5-5-------------3-3-3-3-3---3-3-5-5-----------------------------------
E:------------------------------------------------------3-3-3-3-3-3-2--0------
Comments