Unwritten Law - Cailin Acoustic Chords & Tabs

 

Cailin Acoustic Chords & Tabs

Unwritten Law Chords & Tabs

Version: 1 Type: Tab 0 ratings
1 star 2 stars 3 stars 4 stars 5 stars
comments

Cailin Acoustic Tab

   
Unwritten Law - Cailin (Acoustic)

Intro
e|------------------------------------------|
B|---------------------------------------0--|
G|----------0--------0--------0--------0----| X 4
D|--------0--------0--------0--------0------|
A|------------------------------------------|
E|-0--3-3------5-5------7-7------8-8--------|

Verse
e|------------------------------------------|
B|---------------------------------------0--|
G|----------0--------0--------0--------0----| X 4
D|--------0--------0--------0--------0------|
A|------------------------------------------|
E|-0--3-3------5-5------7-7------8-8--------|


e|------------------|
B|-----0----------0-|
G|-----0--------0---| X 3
D|-----0------0-----|
A|------------------|
E|-3-3---8-8--------|

e|-----------------------|
B|-----0---------------0-|
G|-----0--------0----0---|
D|-----0------0----0-----|
A|-----------------------|
E|-3-3---8-8-------------|


e|---------------------------------------------------------------------------|
B|-----------------------------------0-------------------------------------0-|
G|------0--------0--------0--------0----------0--------0--------0--------0---|
D|----0--------0--------0--------0----------0--------0--------0--------0-----|
A|---------------------------------------------------------------------------|
E|3-3------5-5------0-0------8-8--------3-3------5-5------7-7------8-8-------|

e|---------------------------------------------------------------------------|
B|------------------------------------0------------------------------------0-|
G|-----0----------0--------0--------0---------0--------0--------0--------0---|
D|---0----------0--------0--------0---------0--------0--------0--------0-----|
A|5--------------------------------------------------------------------------|
E|3---------5-5------0-0------8-8-------3-3------5-5------7-7------8-8-------|

Chorus
C D G Em

C D

e|------------------|
B|-----0----------0-|
G|-----0--------0---| X 3
D|-----0------0-----|
A|------------------|
E|-3-3---8-8--------|

e|-----------------------|
B|-----0---------------0-|
G|-----0--------0----0---|
D|-----0------0----0-----|
A|-----------------------|
E|-3-3---8-8-------------|
[ Tab from: http://www.guitartabs.cc/tabs/u/unwritten_law/cailin_acoustic_tab.html ]
Verse
e|---------------------------------------------------------------------------|
B|-----------------------------------0-------------------------------------0-|
G|------0--------0--------0--------0----------0--------0--------0--------0---|
D|----0--------0--------0--------0----------0--------0--------0--------0-----|
A|---------------------------------------------------------------------------|
E|3-3------5-5------0-0------8-8--------3-3------5-5------7-7------8-8-------|

e|---------------------------------------------------------------------------|
B|------------------------------------0------------------------------------0-|
G|-----0----------0--------0--------0---------0--------0--------0--------0---|
D|---0----------0--------0--------0---------0--------0--------0--------0-----|
A|5--------------------------------------------------------------------------|
E|3---------5-5------0-0------8-8-------3-3------5-5------7-7------8-8-------|

Chorus
Em G C D

C D G Em

C D G Em

C D G Em

Em G C D

Pre Solo
e|--------3--------3-------3------3-------3--------3-------3----------------|
B|------3--------3-------3------3-------3--------3-------3------------------|
G|--------------------------------------------------------------------------|
D|--------------------------------------------------------------------------|
A|-0-2-------2-3-----3-2-----2-3----3-2-----2-3------3-2--------------------|
E|--------------------------------------------------------------------------|

Solo X 2
e|-3---5p3--3--5p3-3---5p3-3--7p5-3--5p3-3-3--5p3------------|
B|-3---3----3--3---3---3---3--3---3--3---3-3--3--------------|
G|-0---0----0--0---0---0---0--0---0--0---0-0--0--------------|
D|-------------------------------------------------4p0-0-4p0-|
A|-----------------------------------------------------------|
E|-----------------------------------------------------------|

e|-5p3--3-----3--5p3--3----3--5--3---|
b|-3----3-----3--3----3----3--3--3---|
g|-0----0-----0--0----0----0--0--0---|
d|-----------------------------------|
a|-----------------------------------|
e|-----------------------------------|

Chorus
Em G C D

C D G Em

C D G Em

C D G Em

Em G C D

Outtro
e|-------3---------------------3-|
B|---------3-----------------3---|
G|-------------0-----------0-----|
D|-----------0-----------0-------|
A|---2------------2----2---------|
E|-3-----------------3-----------|
Comments