Unsung Zeros - Kristina Chords & Tabs

 

Kristina Chords & Tabs

Unsung Zeros Chords & Tabs

Version: 2 Type: Bass Tab 0 ratings
1 star 2 stars 3 stars 4 stars 5 stars
comments

Kristina Bass Tab

Unsung Zeros - Kristina
Tabbed by : GopherCraig
Email : Penguin289@hotmail.com


Intro:

G-------12--------------------------------
D----15----14-15-12-14--------------------
A-12-------------------15-----------------
E-----------------------------------------
B-----------------------------------------x3

G-------12-------------------13-16------------------------
D----15----14-15-12-12h14h15-------15-14h15p14------------
A-12------------------------------------------------------
E---------------------------------------------------------
B---------------------------------------------------------


Preverse:

G---------------------------------------------------------
D----------2-----3-7--------------7/9---------------------
A------0-4---4-5-----8-7-8-7-5-5h7----7-------------------
E---------------------------------------8-----------------
B---------------------------------------------------------

G---------------------------------------------------------
D----------2-----3-7-------------7------------------------
A------0-4---4-5-----8-7-8-7-5-5---0-7--------------------
E---------------------------------------------------------
B---------------------------------------------------------
[ Tab from: http://www.guitartabs.cc/tabs/u/unsung_zeros/kristina_btab_ver_2.html ]
G---------------------------------------------------------
D----------2-----3-7--------------7/9---------------------
A------0-4---4-5-----8-7-8-7-5-5h7----7-------------------
E---------------------------------------8-----------------
B---------------------------------------------------------

G---------------------------------------------------------
D----------2-----3-7--------------------------------------
A------0-4---4-5-----8-7-8-7-5-7-5-4-2--------------------
E---------------------------------------------------------
B---------------------------------------------------------

Verse:

G---------------------------------------------------------
D----------2-----3-7--------------------------------------
A------0-4---4-5-----8-7-8-7-5-7-5-4-2--------------------
E---------------------------------------------------------
B---------------------------------------------------------

Chorus:
G---------------------------------------------------------
D---------------------------------------------------------
A-------------44444-55555---------------------------------
E-55555-00000---------------------------------------------
B---------------------------------------------------------

Interlude:

G---------------------------------------------------------
D---------------7-----------------------------------------
A-000000000-6h7-------------------------------------------
E---------------------------------------------------------
B---------------------------------------------------------

Song Structure:
Intro
Preverse
Verse x4 
Chorus x4
Preverse
Verse x4
Chorus x4
Interlude x8
Preverse
Verse x4
Chorus x8
Interlude x4
Comments