Unsigned - Jazz Collectivation By Noah's Ark Chords & Tabs

 

Jazz Collectivation By Noah's Ark Chords & Tabs

Unsigned Chords & Tabs

Version: 1 Type: Tab 1 rating
1 star 2 stars 3 stars 4 stars 5 stars
comments

Jazz Collectivation By Noah's Ark Tab

   
"Jazz Collectivation" by Noah's Ark (2 of everything) i dont have the second guitar or bass parts 
in here, mainly bc they suck right now and are being worked on
i might post some other songs later  maybe from our first album that we made for our GP


legend:
-----_6=half length
-----9_=double length
h=hammer on
v=vibrato
^=half bend
5/6= slide

[ Tab from: http://www.guitartabs.cc/tabs/u/unsigned/jazz_collectivation_by_noahs_ark_tab.html ]
Bass:                                   mini solo
G:--------------------------------------------------------------------------------
D:-----4-2------4-2------4-2------4-2-3-2-1-0h1h2h3h4h5h6/12vvvvv-11----11-10-----(and so on to 0)
A:_2-4_----_2-4_----_2-4_----_2-4_-----------------------------------12-------11------
E:--------------------------------------------------------------------------------
            
guitar: intro:                 32nd notes----tripilet
E:--------------------------------------------------------------------------------
B:--------------------------------------------------------------------------------
G:--------------------------------------------------------------------------------
D:-3-3--8-8-8-8--3-3--8-8-8-8-3-3-8-8-8-8-10-10-8-8-8-8---------------------------------
A:-3-3--8-8-8-8--3-3--8-8-8-8-3-3-8-8-8-8-10-10-8-8-8-8---------------------------------
E:-1-1--6-6-6-6--1-1--6-6-6-6-1-1-6-6-6-6--8--8-6-6-6-6---------------------------------
 
riff 1: the groups of 4 strumming ling this: down up, down up
E:--------------------------------------------------------------------------------
B:--------------------------------------------------------------------------------
G:--------------------------------------------------------------------------------
D:-3-3--8-8--3-3--8-8-8--3-3--8-8-8-8-10-10--8-8-8-8----------------------------
A:-3-3--8-8--3-3--8-8-8--3-3--8-8-8-8-10-10--8-8-8-8----------------------
E:-1-1--6-6--1-3--6-6-6--1-1--6-6-6-6--8--8--6-6-6-6-------------------------

verse use chords g d and a c in groups; g at beginning, d at end, next line a c and so on

RIFF2:bridge
E:------------------7-9-11vv-----------------------------------------------------
B:-------------7-9----------------------------------------------------------------
G:---------5^--------------------------------------------------------------------
D:-----5-7------------------------------------------------------------------------
A:-5-7------------------------------12vv---10\---------------------------------------
E:---------------------------9-11/12----------\10-9-8-7-6-5-3----------------------------



Riff: Ending: slow... (let it ring)
E:---------9--7--5--3------------------------------------------------------------
B:-------0------------------------------------------0----------------------------------------------
G:-----7--------------------------------------------7----------------------------------------------
D:---9----------------------------------------------9----------------------------------------------
A:-9------------------------------------------------9----------------------------------------------
E:--------------------------------------------------------------------------------

E:
A:
D:----------------------------------------quiet-(below guitar)-----even with guitar
G:/5-5-5\3-3-3\1-1-1-0-0-0-5-5-5-5-5-7-5-5-5-5-5-5-5-5-5-7-5-7-5-7-5------32103vvvv

structure
intro
riff 1+intro x2 mini solo at end
bridge
verse
bridge
chorus:riff 1+intro x2 mini solo at end
riff 1+intro x1 no mini solo
(repeat structure w/out intro)x3
chorus 
then end

email: E_Is_728@yahoo.com aim: soceitysslave
--chris
Comments