Unseen - Fight For A Better Life Chords & Tabs

 

Fight For A Better Life Chords & Tabs

Unseen Chords & Tabs

Version: 1 Type: Tab 0 ratings
1 star 2 stars 3 stars 4 stars 5 stars
comments

Fight For A Better Life Tab

   
FIGHT FOR A BETTER LIFE - Unseen

Tabbed by El Toro \m/
If this sucks don't be mad, one of my first tabs. Hope it helps.

Intro Riff)
e|-------------------------------|
B|-------------------------------|
G|------------------7--/--9------|
D|-----7-7-7-7-7-7--7--/--9------| 
A|-----7-7-7-7-7-7--5--/--7------|
E|-----5-5-5-5-5-5---------------|

Riff A)
e|-----------------------------------|
B|-----------------------------------|
G|--7--/--9--------------------------|
D|--7--/--9---7-7-7-7-7-7------------| 
A|--5--/--7---7-7-7-7-7-7------------|
E|------------5-5-5-5-5-5------------|

Riff B)
e|-----------------------------------------------------|
B|-----------------------------------------------------|
G|--7--/--11-11-11-11-11-11---------7--/--9--9-9-9-9-9-|
D|--7--/--11-11-11-11-11-11---------7--/--9--7-7-7-7-7-|  
A|--5--/---9--9--9--9--9--9---------5--/--7--7-7-7-7-7-|
E|-----------------------------------------------------|

Riff C)
e|---------------------------------------------------------------------------|
B|---------------------------------------------------------------------------|
G|--4-4-4-4-4-4-6-6-7-7-7-7-7-7-7-7-------4-4-4-4-4-4-6-6-7-7-7-7--9-9-9-9---|
D|--4-4-4-4-4-4-6-6-7-7-7-7-7-7-7-7-------4-4-4-4-4-4-6-6-7-7-7-7--9-9-9-9---| 
A|--2-2-2-2-2-2-4-4-5-5-5-5-5-5-5-5-------2-2-2-2-2-2-4-4-5-5-5-5--7-7-7-7---|
E|---------------------------------------------------------------------------|
[ Tab from: http://www.guitartabs.cc/tabs/u/unseen/fight_for_a_better_life_tab.html ]
Riff D)
e|----------------------------------------|
B|----------------------------------------|
G|-----------9-9-9-9--7-7-6-6-7-7-9-9-----| 
D|--7-7-7-7--9-9-9-9--7-7-6-6-7-7-9-9-----|
A|--7-7-7-7--7-7-7-7--5-5-4-4-5-5-7-7-----|
E|--5-5-5-5-------------------------------|

Intro Riff x 5
Riff B x 1
Riff A x 2
Riff B x 1
Riff C x 1
Riff D x 2

Riff A x 2
Riff B x 1
Riff A x 2
Riff B x 1
Riff C x 1
Riff D x 2

This time around there's a little lead thingy
e|---------------------------------------------------------------------------|
B|-4-4-1--4-4-1--6-6-6-6-2-4-4-4-4--2h4---4-4-1--4-4-1--6-6-6-6-2-4-4-4-4----|
G|--------------------------------------1------------------------------------|
D|---------------------------------------------------------------------------|
A|---------------------------------------------------------------------------|
E|---------------------------------------------------------------------------|

Riff A x 2
Riff B x 1
Riff A x 2
Riff B x 1

e|-------------------------------------------------------------|
B|-6-6-6-6-6-6-8-9-9---6-6-6-6-6-6-8-9-9-11-11-11-11-9---------|
G|-------------------------------------------------------------|
D|-------------------------------------------------------------|
A|-------------------------------------------------------------|
E|-------------------------------------------------------------|

Riff C x 1
Riff D x 4

Outro)  Stay pissed!
e|-----------------------------|
B|-----------------------------|
G|--7-6-7-9--7-6-7-9-----------|
D|--7-6-7-9--7-6-7-9-7---------|
A|--5-4-5-7--5-4-5-7-7---------|
E|-------------------5---------|

questions or comments: El_toro_is_god@hotmail.com
Comments