Unseen - Explode Chords & Tabs

 

Explode Chords & Tabs

Unseen Chords & Tabs

Version: 1 Type: Bass Tab 0 ratings
1 star 2 stars 3 stars 4 stars 5 stars
comments

Explode Bass Tab

   
Artist: The Unseen
Song: Explode 
Album: Explode 
Tuning: EADG

Intro: after guitar plays 4 bars.
G|------|
D|------|
A|--3---| 
E|------| 

Verse1: x4                  play on 4th time
G|------------------------|--------------------|
D|-------------2222-0000--|--4444444444444444--|
A|---32--2~---------------|--------------------|
E|------------------------|--------------------| 

Verse2: x4 
G|-----------------------|
D|------------2222-0000--|
A|---32-2~---------------|
E|-----------------------| 
[ Tab from: http://www.guitartabs.cc/tabs/u/unseen/explode_btab.html ]
Chorus: x1
G|-------------------------------------------------------------------------|
D|--4444444444444444-5555555555555555-4444444444444444-55555555-7-7-7------|
A|---------------------------------------------------------------------9/--|
E|-------------------------------------------------------------------------|

Verse1: x4
Verse2: x4 
Chorus: x1

Verse3: x3
G|----------------------------------|
D|----------------------------------|
A|---2--2---20------------00000000--|
E|--------------33333333------------| 

Verse4: x4
G|-----------------------------------------|
D|-----------------------------------------|
A|---2222222222222220------------00000000--|
E|---------------------33333333------------| 
Outro: x1
G|----------------------| 
D|----------------------|
A|---2--2---20-------2~-|
E|--------------3~------| 

End on
G|---|
D|---|
A|-2-|
E|---|
Comments