Unseen - Coincidence Or Consequence Chords & Tabs

 

Coincidence Or Consequence Chords & Tabs

Unseen Chords & Tabs

Version: 1 Type: Tab 0 ratings
1 star 2 stars 3 stars 4 stars 5 stars
comments

Coincidence Or Consequence Tab

COINCIDENCE OR CONSEQUENCE - The Unseen

By: J.T. Forever, Daftmask@aol.com

I looked everywhere for this tab, because it's my favorite Unseen song, but
when I couldn't find it anywhere, I decided to learn myself.  And if anyone
was like me, and looked everywhere for it, look no further, this is the right
way to play it! I guarantee it!

Intro/Verse/Outro
e|---------------------------------------------------------------------------|
B|---------------------------------------------------------------------------|
G|-6--4--2--2----------------------------------------------------------------|
D|-6--4--2--2----------------------------------------------------------------|
A|-4--2--0--0----------------------------------------------------------------|
E|---------------------------------------------------------------------------|

"You have a job but can't afford the rent"
e|---------------------------------------------------------------------------|
B|---------------------------------------------------------------------------|
G|---------------------------------------------------------------------------|
D|-6666-6666--4444-4444---2222-2222-2222-2222--------------------------------|
A|-4444-4444--2222-2222---0000-0000-0000-0000--------------------------------|
E|---------------------------------------------------------------------------|
[ Tab from: http://www.guitartabs.cc/tabs/u/unseen/coincidence_or_consequence_tab.html ]
"Kill, Kill, Die, Die, Death, Death, Suicide"
e|---------------------------------------------------------------------------|
B|---------------------------------------------------------------------------|
G|---------------------------------------------------------------------------|
D|--------------------------999-----999--------------------------------------|
A|-7777-7777-6666-4444--222-777-222-777--------------------------------------|
E|-5555-5555-4444-2222--000-----000------------------------------------------|

"Welfare is Warfare....."
e|---------------------------------------------------------------------------|
B|---------------------------------------------------------------------------|
G|-6--4--2--2----------------------------------------------------------------|
D|-6--4--2--2----------------------------------------------------------------|
A|-4--2--0--0----------------------------------------------------------------|
E|---------------------------------------------------------------------------|

Lead Riff during verse: (I'm not too sure)
e|-999-11-12----------11-12----------11-12----------11-12--------------------|
B|-----------12-12-12-------10-10-10-------10-10-10--------------------------|
G|---------------------------------------------------------------------------|
D|---------------------------------------------------------------------------|
A|---------------------------------------------------------------------------|
E|---------------------------------------------------------------------------|

It's a fun and easy song to play... enjoy.
Comments