Unseen - Children Of The Revolution Chords & Tabs

 

Children Of The Revolution Chords & Tabs

Unseen Chords & Tabs

Version: 2 Type: Tab 0 ratings
1 star 2 stars 3 stars 4 stars 5 stars
comments

Children Of The Revolution Tab

   
Artist:  The Unseen
Song:  Children of the Revolution
Album:  Lower Class Crucifixion
Track:  1
Tabbed by:  Rick (RCGoalie1@aol.com)
AIM:  unhlax23

 
Chords:

E5   (022xxx)
A5   (577xxx)
E2   (x799xx)
D5   (x577xx)
G2   (x10-12-12xx)
F#2  (x9-11-11xx)


Intro:  drums start, then the guitar plays E5


Verse:

E|-----------------|-----------------------------------------------|
B|-----------------|-----------------------------------------------|
G|-7-7-7-7-7-7-7-7-|--------9-9-9-9-7-7-7-7-7-7-7-7----------------|
D|-7-7-7-7-7-7-7-7-|7-7-7-7-9-9-9-9-7-7-7-7-7-7-7-7----------------|
A|-5-5-5-5-5-5-5-5-|7-7-7-7-7-7-7-7-5-5-5-5-5-5-5-5----------------|
E|-----------------|5-5-5-5----------------------------------------|
     play once                 play several times

Chorus:

E|----------------------------------------------------------------|
B|----------------------------------------------------------------|
G|-11-------------------------------------------------------------|
D|-11-let ring--2-2-2-2-2-2-2-2-2-2-2-2-2-2-2-2-------------------|
A|--9-----------2-2-2-2-2-2-2-2-2-2-2-2-2-2-2-2-------------------|
E|--------------0-0-0-0-0-0-0-0-0-0-0-0-0-0-0-0-------------------|


"Children of the Revolution" part:
[ Tab from: http://www.guitartabs.cc/tabs/u/unseen/children_of_the_revolution_tab_ver_2.html ]
E|----------------------------------------------------------------|
B|----------------------------------------------------------------|
G|--------------------------12--12--12-11-11-11--9-9-9-9-9-9------|
D|-7-7-7-7-7-7-7-7-7-7-7-7--12--12--12-11-11-11--9-9-9-9-9-9------|
A|-7-7-7-7-7-7-7-7-7-7-7-7--10--10--10--9--9--9--7-7-7-7-7-7------|
E|-5-5-5-5-5-5-5-5-5-5-5-5----------------------------------------|


Bridge:

E|-x-x---x-x-x---x-x-x---x-x-x------------------------------------|
B|-x-x---x-x-x---x-x-x---x-x-x------------------------------------|
G|-x-x---x-x-x---x-x-x---x-x-x------------------------------------|
D|-x-x---x-x-x---x-x-x---x-x-x-2-2-2-2-2-2-2-2-2-2-2-2-2-2-2------|
A|-x-x---x-x-x---x-x-x---x-x-x-2-2-2-2-2-2-2-2-2-2-2-2-2-2-2------|
E|-x-x---x-x-x---x-x-x---x-x-x-0-0-0-0-0-0-0-0-0-0-0-0-0-0-0------|


Ending:

E|----------------------------------------------------------------|
B|----------------------------------------------------------------|
G|-12-12-12-11-11-11-9-9-9-9-9--12-12-12-11-11-11--9-9-9-9-9------|
D|-12-12-12-11-11-11-9-9-9-9-9--12-12-12-11-11-11--9-9-9-9-9---7--|
A|-10-10-10--9--9--9-7-7-7-7-7--10-10-10--9--9--9--7-7-7-7-7---7--|
E|-------------------------------------------------------------5--|


Let that last A5 chord ring to end the song.
Rate this please, and email me with questions and stuff.  Later.
Comments