Unseen - Alone Chords & Tabs

 

Alone Chords & Tabs

Unseen Chords & Tabs

Version: 1 Type: Tab 0 ratings
1 star 2 stars 3 stars 4 stars 5 stars
comments

Alone Tab

Band: The Unseen
Song: Alone
Album: Lower Class Crucifixion



Intro/Riff 1:  -----------------------------------|
               -----------------------------------|
               ----------------------------55-----|
               --5/7-7--5/7-7--3-3-3-3--55-55-77--|
               --5/7-7--5/7-7--3-3-3-3--55-33-77--| x4
               --3/5-5--3/5-5--1-1-1-1--33----55--|


Lead:    ----------------------------------|
         -----------------------------1----|
         --0-2-2--0-2-2-----------0-2---2--|
         ----------------3-3-3-3-----------| x2
         ----------------------------------|
         ----------------------------------|

        (play lead over intro/riff 1 x2)

Repeat Riff 1 x4
[ Tab from: http://www.guitartabs.cc/tabs/u/unseen/alone_tab.html ]
Riff 2:  ----------------------------------|
         ----------------------------------|
         --4-4-4-4-7-7-7-7-----------------|
         --4-4-4-4-7-7-7-7-7-7-7-7-5-5-5-5-| x6
         --2-2-2-2-5-5-5-5-7-7-7-7-5-5-5-5-| 
         ------------------5-5-5-5-3-3-3-3-|

Lead   x2 (played over Riff 1 x2)
Riff 1 x4
Riff 2 x6

Riff 3:  ---------------------------------------------------|
         ---------------------------------------------------|
         --4-x-4-x-4-x-7-x-7-x-7-x--------------------------|
         --4-x-4-x-4-x-7-x-7-x-7-x-7-x-7-x-7-x-5-x-5-x-5-x--|x4
         --2-x-2-x-2-x-5-x-5-x-5-x-7-x-7-x-7-x-5-x-5-x-5-x--|
         --------------------------5-x-5-x-5-x-3-x-3-x-3-x--|

Lead x2 (played over Riff 1 x2)
Riff 1 x4
Comments