Unseen - Add Chords & Tabs

 

Add Chords & Tabs

Unseen Chords & Tabs

Version: 1 Type: Tab 0 ratings
1 star 2 stars 3 stars 4 stars 5 stars
comments

Add Tab

   
----------------------------------------------------------------------------
			     A.D.D. - The Unseen
----------------------------------------------------------------------------
Tabbed by: Canadianozzy
Email: Canadianezzy@hotmail.com

Tuning:Standard EADGBe

       Intro
e|-------------------------------------------------------------------------|
B|-------------------------------------------------------------------------|
G|--------777--------------------------------------------------------------|
D|---7----777------7----555---------------x2-------------------------------|
A|---7----555------7----555------------------------------------------------|
E|---5-------------5----333------------------------------------------------|
    ADD! Disorder!ADD! Bored to death
[ Tab from: http://www.guitartabs.cc/tabs/u/unseen/add_tab.html ]
     Verse
e|--------------------------------------------------------------------------|
B|--------------------------------------------------------------------------|
G|-------97-----7-----------------------------------------------------------|
D|---777-97-777-75------------------------x2--------------------------------|
A|---777-75-777-55----------------------------------------------------------|
E|---555----555--3----------------------------------------------------------|

     Chorus
e|---------------------------------------------------------------------------|
B|---------------------------------------------------------------------------|
G|----------777--------------------------------------------------------------|
D|---777----777----777----555---------------x2-------------------------------|
A|---777----555----777----555------------------------------------------------|
E|---555-----------555----333------------------------------------------------|
    ADD!  Disorder! ADD! Bored to death

Verse x2

Chorus x2

Verse x2

Chorus x2

End With:  -----------|
           -----------|
           -----------|
           --5------5-|
           --5------5-|
           --3------3-|

| /  slide up
| \  slide down
| h  hammer-on
| p  pull-off
| ~  vibrato
| +  harmonic
| x  Mute note
============================================================================
Comments