Unlord - Schwarzwald Chords & Tabs

 

Schwarzwald Chords & Tabs

Unlord Chords & Tabs

Version: 1 Type: Tab 0 ratings
1 star 2 stars 3 stars 4 stars 5 stars
comments

Schwarzwald Tab

   
UNLORD

Schwarzwald

From: Schwarzwald

Displeased Records 1997



Tune down 1 step.



Riff A: 14X

|---------------///s\\\--|

|--9-9-9-9-9-9-9-10-9--|

|--7-7-7-7-7-7-7--8-7--|

|-----------------------|



Riff A2 (Guitar 2): Enters on 7th time of Riff A and finishes on the 10th
time.

|---H-P-------|

|--5-6-5-3-5--|

|--------------|

|--------------|


[ Tab from: http://www.guitartabs.cc/tabs/u/unlord/schwarzwald_tab.html ]
Riff B: 2X

|--8--7--8-----------|

|--6--5--6--9-9-9-9--|

|-----------7-7-7-7--|

|---------------------|



Riff A: 6X



Riff C: The slow riff in the middle of the song.

|-----------------------------|

|------2-5-2-----------H-P---|

|---------------5---2-0-2-0--|

|--0--------------------------|



Can anybody fill in the holes?



Tabbed by: macabre@interlog.com
Comments