Unloco - Texas Chords & Tabs

 

Texas Chords & Tabs

Unloco Chords & Tabs

Version: 2 Type: Tab 0 ratings
1 star 2 stars 3 stars 4 stars 5 stars
comments

Texas Tab

Standard Tunning
This was all done by ear kinda like one on here, the strumming is easy to figure out 


INTRO (0:00-0:51)
E----------------------------------------------------------------
B----------------------------------------------------------------
G----66--------00--44--------------------------------------------
D----66---77---22--44--------------------------------------------
A----44---77---22--22--------------------------------------------
E---------55-----------------------------------------------------
[ Tab from: http://www.guitartabs.cc/tabs/u/unloco/texas_tab_ver_2.html ]
(0:52-1:25)
E---------------------------------------------------------------
B---------------------------------------------------------------
G--99------------------------------------------------------------
D--XX---99--66--------BACK INTO INTRO----------------------------
A--77---99--44--77-----------------------------------------------
E--00---77------55-----------------------------------------------

(2:44-END)
E----------------------------------------------------------------
B----------------------------------------------------------------
G--66------6-------------------0 END WITH THIS CHORD-------------
D--66---77--7------------------2---------------------------------
A--44---77---7-----------------2---------------------------------
E-------55---------------------0---------------------------------
Comments