Unloco - Texas Chords & Tabs

 

Texas Chords & Tabs

Unloco Chords & Tabs

Version: 1 Type: Tab 0 ratings
1 star 2 stars 3 stars 4 stars 5 stars
comments

Texas Tab

Artist: Unloco
Album: Becoming I
Song: Texas
Tabbed by: David Heckman 
This sounds pretty close. I have only been playing a year. I am better at chords
then anything else. I could never play lead anything so this song is right up my
alley. notice the second guitar in the chorus gone.And the interlude. I got what
I could. if you got anything better feel free to e-mail me. This should be a
start for someone so. the chorus may not be on so e-mail me with corrections!
[ Tab from: http://www.guitartabs.cc/tabs/u/unloco/texas_tab.html ]
        verse 
E:---------------------------------------0--0-0-0-0---
B:---------------------------------------x--x-x-x-x---
G:--6---6-6-6-6--6-6-6-6--6-6-6-6--6-6-6-2--2-2-2-2---
D:--6---6-6-6-6--6-6-6-6--6-6-6-6--6-6-6-2--2-2-2-2---
A:--4---4-4-4-4--4-4-4-4--4-4-4-4--4-4-4-0--0-0-0-0---
D:---------------------4--4-4-4-4--4-4-4--------------


E:-0-0-0-0--0-0-0-----------
B:-x-x-x-0--0-0-0-----------
G:-2-2-2-x--x-x-x-4--4-4-4-- verse
D:-2-2-2-2--2-2-2-4--4-4-4--   x6
A:-0-0-0-2--2-2-2-2--2-2-2--
D:--------------------------

     chorus: Gtr1
E:-0--0-0-0-0--0-0-0-------------------------------------
B:-x--x-x-x-x--x-x-x-0--0-0-0-0--0-0-0-------------------
G:-2--2-2-2-2--2-2-2-x--x-x-x-x--x-x-x-------------------
D:-2--2-2-2-2--2-2-2-2--2-2-2-2--2-2-2-2--2-2-2-2--2-2-2-
A:-------------------2--2-2-2-2--2-2-2-2--2-2-2-2--2-2-2-
D:-------------------------------------2--2-2-2-2--2-2-2-


E:----------------------
B:----------------------
G:-4--4-4-4-4--4-4-4----   Chorus
D:-4--4-4-4-4--4-4-4----     x4? 
A:-2--2-2-2-2--2-2-2----
D:----------------------
Comments