Unloco - Panic Chords & Tabs

 

Panic Chords & Tabs

Unloco Chords & Tabs

Version: 2 Type: Tab 0 ratings
1 star 2 stars 3 stars 4 stars 5 stars
comments

Panic Tab

   
Song: "Panic"
Artist: Unloco
Album: Healing
Transcribed By: Bryan Bramlett (bryanmb87@aol.com)

Tuning: Drop D, 1 1/2 Steps Down (B,F#,B,E,G#,C#)

VERSE: (palm mute)
|---------------------------------|
|---------------------------------|
|---------------------------------|
|---------------------------------|
|---------------------------------|
|-1p0-0-1p0-0-1p0-0-1p0-0-3p0-3p0-|

FILL: (palm mute)
|---------------------------|
|---------------------------|
|---------------------------|
|---------------------------|
|---------------------------|
|-1p0-0-1p0-0-1p0-0-1p0-0-3-|

MAIN RIFF:
|---------------------------------|
|---------------------------------|
|---------------------------------|
|---------------------------------|
|---------------------------------|
|-1p0-0-1p0-0-1p0-0-1p0-0-3p0-3p0-|
[ Tab from: http://www.guitartabs.cc/tabs/u/unloco/panic_tab_ver_2.html ]
BRIDGE:
|------------------------------------------------------------------|
|------------------------------------------------------------------|
|-777777777777777777777777777777775555555555555555-----------------|
|-XXXXXXXXXXXXXXXXXXXXXXXXXXXXXXXXXXXXXXXXXXXXXXXX7777777777777777-|
|-555555555555555555555555555555553333333333333333XXXXXXXXXXXXXXXX-|
|-------------------------------------------------7777777777777777-|

CHORUS:
|-----------------------------------------|
|-----------------------------------------|
|-7-77-10-10-1010-------------------------|
|-7-77-10-10-1010-10-10-10-10-12-13-12-10-|
|-5-55--8--8--8-8-10-10-10-10-12-13-12-10-|
|-----------------10-10-10-10-12-13-12-10-|

|-------------------------------------|
|-------------------------------------|
|-7-77-10-10-1010---------------------|
|-7-77-10-10-1010-10-10-0-5-3-0-0h1p0-|
|-5-55--8--8--8-8-10-10-0-5-3-0-0h1p0-|
|-----------------10-10-0-5-3-0-0h1p0-|
Comments