Unloco - Naive Chords & Tabs

 

Naive Chords & Tabs

Unloco Chords & Tabs

Version: 2 Type: Tab 0 ratings
1 star 2 stars 3 stars 4 stars 5 stars
comments

Naive Tab

   
Song: "Naive"
Artist: Unloco
Album: Healing
Transcribed By: Bryan Bramlett (bryanmb87@aol.com)

Tuning: Drop D, 1 1/2 Steps Down (B,F#,B,E,G#,C#)

VERSE:
|------------------|
|------------------|
|------------------|
|-5555555533336666-|
|------------------|
|------------------|

BRIDGE:
|---------------|
|---------------|
|------55558888-|
|-0--0-XXXXXXXX-|
|-0--0-33336666-|
|-0--0----------|

CHORUS:
|---------------|
|---------------|
|---------------|
|-0--6-0--6-0-6-|
|-0--6-0--6-0-6-|
|-0--6-0--6-0-6-|
[ Tab from: http://www.guitartabs.cc/tabs/u/unloco/naive_tab_ver_2.html ]
INTERLUDE:
|---------------------------------|
|---------------------------------|
|---------------------------------|
|---------------9---------------9-|
|-7h8p7-7-7h8p7---7h8p7-7-7h8p7---|
|---------------------------------|

INTERLUDE 2:
|---------------------------------|
|---------------------------------|
|---------------------------------|
|---------------------------------|
|---------------2---------------2-|
|-2h3p2-2-2h3p2---2h3p2-2-2h3p2---|

INTERLUDE 3:
|-----------|
|-----------|
|-----------|
|-----------|
|-55--55-55-|
|-----------|

INTERLUDE 4:
|--------------|
|--------------|
|--------------|
|-0-0--0-0---0-|
|-0-0--0-0---0-|
|-0-0--0-0---0-|
Comments