Unloco - Making Me Hate You Chords & Tabs

 

Making Me Hate You Chords & Tabs

Unloco Chords & Tabs

Version: 1 Type: Tab 0 ratings
1 star 2 stars 3 stars 4 stars 5 stars
comments

Making Me Hate You Tab

   
Band- Unloco
Song- Making Me Hate You

Tuning: Drop D, 1 1/2 Steps Down (B,F#,B,E,G#,C#)


Intro:
c#|------------------------------------------------------------------------------------|
g#|------------------------------------------------------------------------------------|
e |------------------------------------------------------------------------------------|
B |--0-0-00-00000-0-0-0--0-0-00-00000--0-0-0--0-0-00-00000-0-0-0--0-0-00-000-000-0-----|
F#|--6p5-55-55555-6p5-5--6p5-55-55555--6p5-5--6p5-55-55555-6p5-5--6p5-55-555-333-3b----|
B |------------------------------------------------------------------------------------|

Bridge:
c#|--------------------------|
g#|--------------------------|
e |--------------------------|
B |-0000-00000---------------|
F#|-0000-00000-6p5-5-6p5-55--|
B |-0000-00000---------------|


Verse: Maybe....????
c#|-----------------------------------------------------------------------------------------|
g#|-----------------------------------------------------------------------------------------|
e |-----------------------------------------------------------------------------------------|
B |-----------------------------------------------------------------------------------------|
F#|-----------------------------------------------------------------------------------------|
B |---0--7-7-7---7p3-7p3-7p3---0-8-8-8--10-8-5----0--7-7-7---7p3-7p3-7p3--0-7-7-7-7/8\5-----|

[ Tab from: http://www.guitartabs.cc/tabs/u/unloco/making_me_hate_you_tab.html ]
Another Bridge
c#|-----------------------------------------|
g#|-----------------------------------------|
e |-----------------------------------------|
B |-------12--------12--------12------------|
F#|--00-0-12--000-0-12-0--000-12-0000-0000--|
B |--00-0-12--000-0-12-0--000-12-0000-0000--|
P.M  .. .     ... .    .  ...    .... ....


Chorus:
c#|------------------------------------------------|
g#|------------------------------------------------|
e |------------------------------------------------|
B |-0h1-11-0--0--0h1-11-0--1--0h1-11-0--3333-------|
F#|-0h1-11-0-----0h1-11-0-----0h1-11-0-------33----|
B |-0h1-11-0-----0h1-11-0-----0h1-11-0-------------|

Interlude:
c#|---------------|
g#|---------------|
e |---------------|
B |--333-555555---|
F#|--333-555555---|
B |--333-555555---|


Bridge:
c#|---------------------------------------------------|
g#|---------------------------------------------------|
e |---------------------------------------------------|
B |-0h1-0h1-0---0h1-0h1-0--0h1-0h1-0----333-55555-----|
F#|-0h1-0h1-0---0h1-0h1-0--0h1-0h1-0----333-55555-----|
B |-0h1-0h1-0---0h1-0h1-0--0h1-0h1-0----333-55555-----|

2nd Interlude:
c#|------------------------|
g#|------------------------|
e |------------------------|
B |--88-88-8888--33333333--|
F#|--88-88-8888--33333333--|
B |--88-88-8888--33333333--|


The end:...            
c#|-----------|-----|------------------|
g#|-----------|-----|------------------|
e |-----------|-----|------------------|
B |-0h1-0h1-0-|-333-|0h1-0h1-0--333--0-|
F#|-0h1-0h1-0-|-333-|0h1-0h1-0--333--0-|
B |-0h1-0h1-0-|-333-|0h1-0h1-0--333--0-|
Comments