Unloco - Far Side Chords & Tabs

 

Far Side Chords & Tabs

Unloco Chords & Tabs

Version: 1 Type: Tab 0 ratings
1 star 2 stars 3 stars 4 stars 5 stars
comments

Far Side Tab

   
Song: "Far Side"
Artist: Unloco
Album: Healing
Transcribed By: Bryan Bramlett (bryanmb87@aol.com)

Tuning: Drop D, 1 1/2 Steps Down (B,F#,B,E,G#,C#)

INTRO:
|--------------------------|
|--------------------------|
|--------------------------|
|--------------------------|
|--------------------------|
|-0-0--0-0--0-0--3-3-3h5-3-|

INTRO 2:
|--------------------------|
|--------------------------|
|--------------------------|
|--------------------------|
|-0-0--0-0--0-0--3-3-3h5-3-|
|-0-0--0-0--0-0--3-3-3h5-3-|

VERSE: (palm mute)
|------------------------|
|------------------------|
|------------------------|
|------------------------|
|------------------------|
|-0-0--0-0--0-0--3335533-|
[ Tab from: http://www.guitartabs.cc/tabs/u/unloco/far_side_tab.html ]
BRIDGE
|----------------------------------------------------------------------|
|----------------------------------------------------------------------|
|----------------------------------------------------------------------|
|-3--2--1------------------------------------------------------3--2--1-|
|-3--2--1--0-0--0-0--0-0--3-3-3h5-3--0-0--0-0--0-0--3-3-3h5-3--3--2--1-|
|-3--2--1--0-0--0-0--0-0--3-3-3h5-3--0-0--0-0--0-0--3-3-3h5-3--3--2--1-|

CHORUS:
|-------------------------|    |----------------------|
|-------------------------|play|----------------------|
|-------------------------| 3X |----------------------|
|-12-1212-6-66-5-55-3-5-3-|then|-2-22-2-22-3-33-5-5-5-|
|-12-1212-6-66-5-55-3-5-3-|    |-2-22-2-22-3-33-5-5-5-|
|-12-1212-6-66-5-55-3-5-3-|    |-2-22-2-22-3-33-5-5-5-|

FILL:
|---|
|---|
|---|
|-0-|
|-0-|
|-0-|

INTERLUDE: (guitar 1)
|---------------------|
|---------------------|
|---------------------|
|-8-8888-8887-7772-22-|
|-8-8888-8887-7772-22-|
|-8-8888-8887-7772-22-|

INTERLUDE: (guitar 2)
|---------------------------------|
|---------------------------------|
|-15-15151515-15151514-1414149-99-|
|--X--X-X-X-X--X-X-X-X--X-X-XX-XX-|
|-13-13131313-13131312-1212127-77-|
|---------------------------------|
Comments