Unloco - Empty Chords & Tabs

 

Empty Chords & Tabs

Unloco Chords & Tabs

Version: 1 Type: Bass Tab 0 ratings
1 star 2 stars 3 stars 4 stars 5 stars
comments

Empty Bass Tab

   
Band- Unloco
Song- Empty

Tuning: Drop D, 1 1/2 Steps Down (B,F#,B,E)

INTRO/VERSE
e |------------------------------------------|
B |------------------------------------------|
F#|------------------------------------------|
B |-0--------7-7----------7/8-----------3----|
[ Tab from: http://www.guitartabs.cc/tabs/u/unloco/empty_btab.html ]
Chorus:
e |------------------------------------|
B |------------------------------------|
F#|------------------------------------|
B |--0-000--77-7777-7-88-88---33-3333--|
     
Interlude:
e |-------------------|
B |-------------------|
F#|-------------------|
B |-5-555-555-555-55--|

Breakdown:
e |---------------------------|
B |---------------------------|
F#|---------------------------|
B |--000-888-000-777--8--10---|

Bridge:
e |---------------|
B |---------------|
F#|------let ring-|
B |--0~~----------|

e |--15-----9h10p9-----|
B |-----12-------------|
F#|--------------------|
B |--------------------|

ENDING
e |----------------------------------------|
B |----------------------------------------|
F#|----------------------------------------|
B |--0-000-000-000-00--8-8888--3-3333333---|
Comments