Unloco - Crashing Chords & Tabs

 

Crashing Chords & Tabs

Unloco Chords & Tabs

Version: 1 Type: Tab 0 ratings
1 star 2 stars 3 stars 4 stars 5 stars
comments

Crashing Tab

   
Band- Onloco
Song- Crashing

Intro:
Db|---------------------------------|
Ab|---------------------------------|
Fb|---------------------------------|
Cb|-2-2-2-3-3-3-2-2-2-3-3-3-2-2-3-3-|
Gb|---------------------------------|
Cb|---------------------------------|

Chorus:
Db|--------------------------------------------------|
Ab|--------------------------------------------------|
Fb|-------9-10-10-10-10-10-10-10---------------------|
Cb|-0-0---X-X--X--X--X--X--X--X--8-8--10-10-10---3-5-|
Gb|-0-0---7/8--8--8--8--8--8--8--8-8--10-10-10---3-5-|
Cb|-0-0--------------------------8-8--10-10-10---3-5-|

Verse:
Db|------------------------------------------------------------------------------------|
Ab|------------------------------------------------------------------------------------|
Fb|------------------------------------------------------------------------------------|
Cb|------------------------------------------------------------------------------------|
Gb|------------------------------------------------------------------------------------|
Cb|-12-12-12-12-12-12-12-12-12--7-7-7-7-7-7-7--8-8-8-8-8-8-8--10-10-10-10-10-10-10--10-|
    *  *  *  *  *  *  *  *  *   * * * * * * *  * * * * * * *  *  *  *  *  *  *  *   *
[ Tab from: http://www.guitartabs.cc/tabs/u/unloco/crashing_tab.html ]
Pre-Chorus
Db|---------------------|
Ab|---------------------|
Fb|---------------------|
Cb|--10-10-10--10-10-10-|
Gb|--10-10-10--10-10-10-|
Cb|--10-10-10--10-10-10-|

Verse 2
Db|----------------------------------------------|
Ab|----------------------------------------------|
Fb|----------------------------------------------|
Cb|-12-12-12-12-12-7-7-7-7-8-8-8-8-8-10-10-10-10-|
Gb|-12-12-12-12-12-7-7-7-7-8-8-8-8-8-10-10-10-10-|
Cb|-12-12-12-12-12-7-7-7-7-8-8-8-8-8-10-10-10-10-|

Bridge:
Db|----------------------|
Ab|----------------------|
Fb|----------------------|
Cb|-0-0-0--10--0-0-10-0--|
Gb|-0-0-0--10--0-0-10-0--|
Cb|-0-0-0--10--0-0-10-0--|
               * *
Db|------------------------------------|
Ab|------------------------------------|
Fb|------------------------------------|
Cb|-0-0-0--3-3-3--0-0-0-3-3-3--0-0-3-3-|
Gb|------------------------------------|
Cb|------------------------------------|
    * * *  * * *  * * * * * *  * * * * 
Db|--------------------------------------|
Ab|--------------------------------------|
Fb|--------------------------------------|
Cb|-0-0-0--3-3-3--0-0-0--3-3-3--0-0--3-3-|
Gb|-0-0-0--3-3-3--0-0-0--3-3-3--0-0--3-3-|
Cb|-0-0-0--3-3-3--0-0-0--3-3-3--0-0--3-3-|
 
Interlude:                               
Db|------------------------------------|----|
Ab|------------------------------------|----|
Fb|-----------9-9-10-10-12-12-14-14\12-|----|
Cb|-0-0-0-0-0-x-x-x--x--x--x--x--x-\x--|-0~-|
Gb|-0-0-0-0-0-7-7-8--8--10-10-12-12\10-|-0~-|
Cb|-0-0-0-0-0--------------------------|-0~-|
Comments