Unleashed - War Machine Chords & Tabs

 

War Machine Chords & Tabs

Unleashed Chords & Tabs

Version: 1 Type: Tab 0 ratings
1 star 2 stars 3 stars 4 stars 5 stars
comments

War Machine Tab

   
                     UNLEASHED - WAR MACHINE
                     From the Album WARRIOR
              Copyright (1997  CENTURY MEDIA)
                     Version 1.0 - (MARCH - 2001)

Transcribed by: REAPER

For Questions, Comments, Newest Version, or Corrections contact
BATHORY@HUK.K64.DK

Check Out Death Warp, With More Transcriptions On It:
 http://tiger.towson.edu/~dalvis1

..  - palm mute          /  - slide up to
 \  - slide down to      ~  - vibrato
 h  - hammer on          b  - bend
 p  - pull off            Suffixes for bend
                          ph - pinch harmonic
                           f - full bend    h - half bend
*  - see comment           r - release      t - tap bend
X  - percussion mute       ~ - vibrato bend
@  - slight palm mute     () - ghost note, sustained note

Tune Gtr to B


Riff A
|--------------------------------------------------------------------|
|--------------------------------------------------------------------|
|-------------------------3-3-3-3------------------------------------| 
|--2-------2-------2-------3-3-3-3-----------------------------------|
|--2-2-2-2-2-2-2-2-2-2-2-2-1-1-1-1-----------------------------------|
|--0-0-0-0-0-0-0-0-0-0-0-0-------------------------------------------|
[ Tab from: http://www.guitartabs.cc/tabs/u/unleashed/war_machine_tab.html ]
Riff B
|--------------------------------------------------------------------|
|--------------------------------------------------------------------|
|--9-(9)-------9-(9)--------101010101010-----------------------------| 
|--9-(9)-------9-(9)--------101010101010-----------------------------| 
|--7-(7)-------7-(7)--------8-8-8-8-8-8------------------------------|
|--------------------------------------------------------------------|

Riff C
|--------------------------------------------------------------------|
|--------------------------------------------------------------------|
|---------------------9---5-5-5--------------------------------------|
|--2--9---5---9---6---9---5-5-5--------------------------------------| 
|--2--7---3---7---4---7---3-3-3--------------------------------------|
|--0-----------------------------------------------------------------|
                                               
END                     
|--------------------------------------------------------------------|
|--------------------------------------------------------------------|
|--------------------------------------------------------------------| 
|--8-8-8-8--2--------------------------------------------------------| 
|--8-8-8-8--2--------------------------------------------------------|
|--6-6-6-6--0--------------------------------------------------------|
Comments