Unleashed - Unleashed Chords & Tabs

 

Unleashed Chords & Tabs

Unleashed Chords & Tabs

Version: 1 Type: Tab 0 ratings
1 star 2 stars 3 stars 4 stars 5 stars
comments

Unleashed Tab

Tuning: 2.5 steps down (B)


Riff:1a			Riff:1b
|----------------------|--------------------------------------------|
|----------------------|--------------------------------------------|
|----------------------|--------------------------------------------|
|---3---7------3---7-6-|--------------------------------------------|
|-3-1-5-5-6--3-1-5-5-4-|----111---555--------111---555444-----------|
|-1---3---4--1---3-----|-111---333---444--111---333-----------------|

Riff:2				   Riff:3
|---------------------------------|---------------------------------|
|---------------------------------|---------------------------------|
|---------------------------------|---------------------------------|
|---------------------------------|---------------------------------|
|-----44----55444-----44----------|---55--44--554433---55--44-------|
|-2233--3322------2233--332266555-|-33--22--22-------33--22--443355-|

Riff:4						  Riff:5a
|------------------------------------------------|------------------|
|------------------------------------------------|------------------|
|------------------------------------------------|------------------|
|------------------------------------------------|------------3-----|
|-----------------555444-----------------4333----|-4-5-2--4-5-1-----|
|-0-000-0-0-000-0--------0-000-0-0-000-0-----444-|-2-3-0--2-3-------|

Riff:5b		       Riff:5c
|---------------------|---------------------------------------------|
|---------------------|---------------------------------------------|
|---------------------|---------------------------------------------|
|---------------------|-----------------------888-------------------|
|-----------------111-|-999101010777-999101010----------------------|
|-222333000-222333----|---------------------------------------------|
[ Tab from: http://www.guitartabs.cc/tabs/u/unleashed/unleashed_tab.html ]
Solo
|-------------------------------------------------------------------|
|------------------------p-----p-----p--------p-----p-----p---------|
|--8\--12\--15\---1414-16-14-17-14-15-14-14-16-14-17-14-15-14-------|
|-------------------------------------------------------------------|
|-------------------------------------------------------------------|
|-------------------------------------------------------------------|

Cont.
|-------------------------------------------------------------------|
|------p-----p-----p--------p-----p-----p-----^--1515171718181717---|
|-14-16-14-17-14-15-14-14-16-14-17-14-15-14-15^---------------------|
|-------------------------------------------------------------------|
|-------------------------------------------------------------------|
|-------------------------------------------------------------------|

Cont.
|------------------------------------------------------p--p---------|
|-1515171718181717-1515171718181717-1515171718181717-18-17-15---p--p|
|-------------------------------------------------------------18-17-|
|-------------------------------------------------------------------|
|-------------------------------------------------------------------|
|-------------------------------------------------------------------|

Cont.
|------------------------Trill--------------------------------------|
|-----p--p---Trill-Trill-13-15-15~~~~\\\----------------------------|
|15-17-16-14-14-16-15-17--------------------------------------------|
|-------------------------------------------------------------------|
|-------------------------------------------------------------------|
|-------------------------------------------------------------------|

Riff:6
|-------------------------------------------------------------------|
|-------------------------------------------------------------------|
|-------------------------------------------------------------------|
|-------------------------------------------------------------------|
|-4-------------4---------------44-4--------------------------------|
|-2-000-0-0-000-2-000-0-0-000-33---2-000-0-0-000-222333222----------|
Comments