Unleashed - Onward Into Countless Battles Chords & Tabs

 

Onward Into Countless Battles Chords & Tabs

Unleashed Chords & Tabs

Version: 1 Type: Tab 0 ratings
1 star 2 stars 3 stars 4 stars 5 stars
comments

Onward Into Countless Battles Tab

   
B E A D F# B


 X 4
|------------------------------------------|
|------------------------------------------|
|------------------------------------------|
|-------------------6---------5---------3--|
|-------------------4---------3---------1--|
|-0-00-00--0-00-00----0-00-00---0-00-00----|
  . .. ..  . .. ..    . .. ..   . .. ..



 X 3
|-----------------------|
|-----------------------|
|-----------------------|
|-----------------------|
|-----------------------|
|-0-00-00--0-00-00-3--6-|
  . .. ..  . .. .. .



|------------------------------------------|
|------------------------------------------|
|------------------------------------------|
|------------------------------------------|
|-------------------------------4-44-44-4--|
|-0-00-00--0-00-00-3--6-66-66-6------------|
   . .. ..  . .. .. .

 X 3
|-----------------------|
|-----------------------|
|-----------------------|
|-----------------------|
|-----------------------|
|-0-00-00--0-00-00-3--6-|
  . .. ..  . .. .. .


|-----------------------------------|
|-----------------------------------|
|-----------------------------------|
|-----------------------------------|
|------4-----3-----------7----------|
|---3-----3-----3--6--3-----6---1---|
    .     .     .     .

 X 4
|---------------------------------------|
|---------------------------------------|
|---------------------------------------|
|------------------888888---------------|
|-------------------------888888777777--|
|--000000000000000----------------------|
   ...............

 X 8
|-----------------------------------------|
|-----------------------------------------|
|-----------------------------------------|
|--9---5-6-----------------5-6------------|
|--7---3-4-----------7-77--3-4------------|
|-----------1-1-1-1-------------1-1-1-1---|


[ Tab from: http://www.guitartabs.cc/tabs/u/unleashed/onward_into_countless_battles_tab.html ]
|-----------------|------------------------|-----------|
|-----------------|------------------------|-----------|
|-----------------|---9-------6----10---9--|-----------|
|--9--5--6--10-9--|--9---5---6---10----9---|--5-6--10--|
|--7--3--4--8--7--|-7----3--4---8-----7----|--3-4--8---|
|-----------------|------------------------|-----------|


|-----------------------------------------|
|-----------------------------------------|
|-----------------------------------------|
|-----------------------------------------|
|-----------------------------------------|
|-0-00-00--0-00-00--0-00-00--0-00-00-3--6-|
  . .. ..  . .. ..  . .. ..  . .. .. .



|------------------------------------------|
|------------------------------------------|
|------------------------------------------|
|------------------------------------------|
|-------------------------------4-44-44-4--|
|-0-00-00--0-00-00-3--6-66-66-6------------|
   . .. ..  . .. .. .


|-----------------------|
|-----------------------|
|-----------------------|
|-----------------------|
|-----------------------|
|-0-00-00--0-00-00-3--6-|
  . .. ..  . .. .. .


|-----------------------------------|
|-----------------------------------|
|-----------------------------------|
|-----------------------------------|
|------4-----3-----------7----------|
|---3-----3-----3--6--3-----6---1---|
    .     .     .     .

 X4
|---------------------------------------|
|---------------------------------------|
|---------------------------------------|
|------------------888888---------------|
|-------------------------888888777777--|
|--000000000000000----------------------|
   ...............


 X 4
|------------------------------------------|
|------------------------------------------|
|------------------------------------------|
|-------------------6---------5---------3--|
|-------------------4---------3---------1--|
|-0-00-00--0-00-00----0-00-00---0-00-00----|
  . .. ..  . .. ..    . .. ..   . .. ..
Comments