Unleashed - Never Ending Hate Chords & Tabs

 

Never Ending Hate Chords & Tabs

Unleashed Chords & Tabs

Version: 1 Type: Tab 0 ratings
1 star 2 stars 3 stars 4 stars 5 stars
comments

Never Ending Hate Tab

   
B E A D F# B


 X 4
|-----------------------------------------------------|
|-----------------------------------------------------|
|-----------------------------------------------------|
|-----------------------------------------------------|
|-----------------------------------3333666655555555--|
|-5555555555558888884444555555555555------------------|
  ..................................................

 X 4
|-----------------------------|
|-----------------------------|
|-----------------------------|
|------------------666666666--|
|--6666666655555555-----------|
|-----------------------------|
   .........................
 X 4
|-----------------------------------------------------------|
|-----------------------------------------------------------|
|----------------------------------------------------666555-|
|-----------------7778887776666----------------777888-------|
|-0000000000000000-------------0000000000000000-------------|
|-----------------------------------------------------------|
  ................             ................
[ Tab from: http://www.guitartabs.cc/tabs/u/unleashed/never_ending_hate_tab.html ]
 X 4
|-------------------------------------------------|
|-------------------------------------------------|
|--------------------------------------------6-5--|
|-2-------2------7-8-7-6--2-------2------7-8------|
|-0--0-0--0--0-0----------0--0-0--0--0-0----------|
|-------------------------------------------------|
     . .     . .             . .     . .

 X 2
|-----------------------------|
|-----------------------------|
|-----------------------------|
|------------------5---8---7--|
|--7--10---6---7---3---6---5--|
|--5---8---4---5--------------|



 X 4
|-----------------------------------------------------|
|-----------------------------------------------------|
|-----------------------------------------------------|
|-----------------------------------------------------|
|-----------------------------------3333666655555555--|
|-5555555555558888884444555555555555------------------|
  ..................................................


 X 3
|-----------------------------|
|-----------------------------|
|-----------------------------|
|------------------666666666--|
|--6666666655555555-----------|
|-----------------------------|
   .........................


 X 1 nver ending  ...hate    ...hate    ...hate   ...hate
|---------------------------------------------------------|
|---------------------------------------------------------|
|---------------------------------------------------------|
|------------------66666666666666666666666666666666666-2--|
|--6666666655555555------------------------------------0--|
|---------------------------------------------------------|
Comments