Unleashed - For They Shall Be Slain Chords & Tabs

 

For They Shall Be Slain Chords & Tabs

Unleashed Chords & Tabs

Version: 1 Type: Tab 0 ratings
1 star 2 stars 3 stars 4 stars 5 stars
comments

For They Shall Be Slain Tab

Tuning: 2.5 steps down (B)

Riff:1                             Riff:2      Riff:3a
|---------------------------------|-----------|---------------------|
|---------------------------------|-----------|---------------------|
|---------------------------------|-----------|---------------------|
|------------------------------10-|-----------|----------2----------|
|-2-222-5--8-7-3--2-222-5--8-7-8--|-2-5-8-7-3-|----------------4----|
|-0-000-3--6-5-1--0-000-3--6-5----|-0-3-6-5-1-|-//\\-0-3---0-3------|

Cont.
|-------------------------------------------------------------------|
|-------------------------------------------------------------------|
|-------------------------------------------------------------------|
|-----2--------------------2-----------2-----------3----------------|
|-----------4---3----------------4-----------4---3------------------|
|-0-3---0-3---2---1----0-3---0-3---0-3---0-3---2--------------------|

Riff:3b                         Riff:4
|------------------------------|------------------------------------|
|------------------------------|------------------------------------|
|------------------------------|------------------------------------|
|-----2---5-------2---7-------3|------------------------------------|
|-----------4-----------6-4-5--|-----------------------------77-----|
|-0-3---0-----0-3---0----------|000333666000665511-000333666--665511|

Riff:5
|-------------------------------------------------------------------|
|-------------------------------------------------------------------|
|-------------------------------------------------------------------|
|-------99------99------77------77------99------99------77------77--|
|---9988----9988----7766----7766----9988----9988----7766----7766----|
|-77------77------55------55------77------77------55------55--------|

Cont.
|-------------------------------------------------------------------|
|-------------------------------------------------------------------|
|-------------------------------------------------------------------|
|-------55------55------77------77--------1010------99------77------|
|---5544----5544----7766----7766----101099------9988----8877----7-6-|
|-33------33------55------55------88----------77------66------55----|
[ Tab from: http://www.guitartabs.cc/tabs/u/unleashed/for_they_shall_be_slain_tab.html ]
Solo
|---T--p----T--p----T--p----T--p-----T--p----T--p----T--p----T--p---|
|-15-11-8-15-11-8-15-11-8-15-11-8--16-12-9-16-12-9-16-12-9-16-12-9--|
|-------------------------------------------------------------------|
|-------------------------------------------------------------------|
|-------------------------------------------------------------------|
|-------------------------------------------------------------------|

Cont.
|---T--p----T--p----T--p----T--p-----T--p----T--p----T--p----T--p---|
|-15-11-8-15-11-8-15-11-8-15-11-8--16-12-9-16-12-9-16-12-9-16-12-9--|
|-------------------------------------------------------------------|
|-------------------------------------------------------------------|
|-------------------------------------------------------------------|
|-------------------------------------------------------------------|

Cont.
|---T--p----T--p----T--p----T--p-----T--p----T--p----T--p----T--p---|
|-15-11-8-15-11-8-15-11-8-15-11-8--16-12-9-16-12-9-16-12-9-16-12-9--|
|-------------------------------------------------------------------|
|-------------------------------------------------------------------|
|-------------------------------------------------------------------|
|-------------------------------------------------------------------|

Cont.
|---T--p----T--p----T--p----T--p-----T--p----T--p----T--p----T--p---|
|-15-11-8-15-11-8-15-11-8-15-11-8--16-12-9-16-12-9-16-12-9-16-12-9--|
|-------------------------------------------------------------------|
|-------------------------------------------------------------------|
|-------------------------------------------------------------------|
|-------------------------------------------------------------------|

Cont.
|------p--p---17------------p--p---------p--p---17-------------p--p-|
|-15-17-16-15------p--p---18-17-16--15-17-16-15------p--p---18-17-16|
|----------------18-17-16--------------------------18-17-16---------|
|-------------------------------------------------------------------|
|-------------------------------------------------------------------|
|-------------------------------------------------------------------|

Cont.
|------p--p---17------------p--p---------p--p---17-----------p--p---|
|-15-17-16-15------p--p---18-17-16--15-17-16-15-----p--p---18-17-16~|
|----------------18-17-16-------------------------18-17-16----------|
|-------------------------------------------------------------------|
|-------------------------------------------------------------------|
|-------------------------------------------------------------------|

Riff:6 (undersolo)
|-------------------------------------------------------------------|
|-------------------------------------------------------------------|
|-------------------------------------------------------------------|
|-------------------------------------------------------------------|
|----555------------------------------------------------------------|
|-333---444---------------------------------------------------------|
Comments