Unleashed - Dead Forever Chords & Tabs

 

Dead Forever Chords & Tabs

Unleashed Chords & Tabs

Version: 1 Type: Tab 0 ratings
1 star 2 stars 3 stars 4 stars 5 stars
comments

Dead Forever Tab

Band: Unleashed
Album: Where No Life Dwells
Song: Dead Forever

Transcribed By: Arckanum
Email: Arckanum@teamwarfare.com
Website: www.teamrapture.com
More Tabs from me at: http://www.doomish.com/go/?r=arckanum

listen to the song to know when to tremolo pick and palm mute and such.
NOTE: there are mistakes that i couldn't get, being that some riffs
are tuff to tab by ear. If anyone finds a fix plz email it to me.
Also listen to the song to hear the Riff order cuz i'm to lazy to
write it out, shouldn't be hard tho.

Tuning: 2.5 steps down (B)

Riff:1                Riff:2
|--------------------|----------------------------------------------|
|--------------------|----------------------------------------------|
|--------------------|----------------------------------------------|
|--------------------|----------------------------------------------|
|-3-3-3-2----7-----4-|-------777666---444333---------777666---444333|
|-1-1-1-0--6---0-3---|-000666------333------444000666------333------|
[ Tab from: http://www.guitartabs.cc/tabs/u/unleashed/dead_forever_tab.html ]
Riff:3                         Riff:4
|-----------------------------|-------------------------------------|
|-----------------------------|-------------------------------------|
|-----------------------------|-------------------------------------|
|-----------------------------|-------------------------------------|
|-------333444111------333444-|-----7766--667766-----7766--6677-----|
|-000333---------000333-------|--000----77------77000----77----666--|

Fill:1          Riff:5
|--------------|----------------------------------------------------|
|--------------|----------------------------------------------------|
|--p-p----p-p--|----------------------------------------------------|
|-8-6-5--7-5-4-|----------------------------------------------------|
|--------------|--2--2-2--3/5\3-----3-4--2--2-2--3/5\3---4----------|
|--------------|--0--0-0--1/3\1-0-1------0--0-0--1/3\1-0---0-1------|

Riff:6                     Riff:7           1st                  2nd
|-------------------------|--------------------|---p-p-----p-p------|
|-------------------------|--------------------|--11-9-8--10-8-7-555|
|-------------------------|---p-p----p-p-------|--------------------|
|-------------------------|--8-6-5--7-5-4-222--|--------------------|
|-------------------------|--------------------|--------------------|
|--000222555444000555444--|--------------------|--------------------|
Comments