Unleashed - Dark One Chords & Tabs

 

Dark One Chords & Tabs

Unleashed Chords & Tabs

Version: 1 Type: Tab 0 ratings
1 star 2 stars 3 stars 4 stars 5 stars
comments

Dark One Tab

Tuning: 2.5 steps down (B)

Riff:1
|-------------------------------------------------------------------|
|-------------------------------------------------------------------|
|-------------------------------------------------------------------|
|-------------------------------------------------------------------|
|-----8\-2-2-1-2-5--2-2-1-2-5--2-2-1-2-5--2-2-1-2-5--2-2-1-2-5--2---|
|-0-0-6\-0-----0-3--0-----0-3--0-----0-3--0-----0-3--0-----0-3--0---|

Riff:2					    Riff:3
|------------------------------------------|------------------------|
|------------------------------------------|------------------------|
|------------------------------------------|------------------------|
|------------------------------------------|------------------------|
|-------p-----------11------p-----------33-|-----3344--------33444--|
|-0000-1-0-00-113344--0000-1-0-00-113344---|-0022----33110022-------|
[ Tab from: http://www.guitartabs.cc/tabs/u/unleashed/dark_one_tab.html ]
Riff:4				  Riff:5
|--------------------------------|----------------------------------|
|--------------------------------|----------------------------------|
|--------------------------------|----------------------------------|
|--------------------------------|--------------------------7766----|
|--------------------------------|-5544--445544---5544--4455-----554|
|-001122440011223300112244222111-|-----55------44-----55------------|

Cont.                         Riff:6
|-----------------------------|-------------------------------------|
|-----------------------------|-------------------------------------|
|-----------------------------|-------------------------------------|
|-----------------------------|-------------------------------------|
|4--445544--5544--44558888888-|-2-/7-/10-/3-2-/7-/10----------------|
|-55------44----55------------|-0-----------0--------5--------------|

Riff:7             Riff:8
|-----------------|-------------------------------------------------|
|-----------------|-------------------------------------------------|
|-----------------|-------------------------------------------------|
|-----------------|-3--------------------------------h-h--3-1-------|
|-2-2-3-2-2-7-8-7-|-1----2----2--h-h--5------2----2-0-2-3-----------|
|-0-------0-------|---00-0-00-0-0-4-5---5-00-0-00-0-----------------|
Comments