Unleashed - Countess Bathory Chords & Tabs

 

Countess Bathory Chords & Tabs

Unleashed Chords & Tabs

Version: 2 Type: Tab 0 ratings
1 star 2 stars 3 stars 4 stars 5 stars
comments

Countess Bathory Tab

   
B E A D F# B


 X6                         X 2
|--------------------------|---------------------------|
|--------------------------|---------------------------|
|--------------------------|---------------------------|
|--7-7--3-3-3--5-5---------|---------5---------5--3----|
|--5-5--1-1-1--3-3--6-6-6--|--5-5-5--3--5-5-5--3--1----|
|-------------------4-4-4--|--3-3-3-----3-3-3----------|



|----------------------------------|
|----------------------------------|
|----------------------------------|
|----------------------------------|
|--5---3---5---8---5---3---5---8---|
|--3---1---3---6---3---1---3---6---|


 X 4                        X 2
coro...countess...
|--------------------------|---------------------------|
|--------------------------|---------------------------|
|--------------------------|---------------------------|
|--7-7--3-3-3--5-5---------|---------5---------5--3----|
|--5-5--1-1-1--3-3--6-6-6--|--5-5-5--3--5-5-5--3--1----|
|-------------------4-4-4--|--3-3-3-----3-3-3----------|



|----------------------------------|
|----------------------------------|
|----------------------------------|
|----------------------------------|
|--5---3---5---8---5---3---5---8---|
|--3---1---3---6---3---1---3---6---|


 X 4
|--------------------------|
|--------------------------|
|--------------------------|
|--7-7--3-3-3--5-5---------|
|--5-5--1-1-1--3-3--6-6-6--|
|-------------------4-4-4--|


 X 3
|----------------------------------|
|----------------------------------|
|----------------------------------|
|-2-----------------------5--4--3--|
|-0--0-00-0-00-0-00-0-00--3--2--1--|
|----------------------------------|
     . .. . .. . .. . ..
[ Tab from: http://www.guitartabs.cc/tabs/u/unleashed/countess_bathory_tab_ver_2.html ]
 X 1
|-------------------------------------|
|-------------------------------------|
|-------------------------------------|
|-2-----------------------5--4-----7--|
|-0--0-00-0-00-0-00-0-00--3--2--3--5--|
|-------------------------------1-----|
     . .. . .. . .. . ..



|----------------------------------|
|----------------------------------|
|----------------------------------|
|--0-3-2-3-5-3-2-0-3-2-0-2--3---5--|
|---------------------------1---3--|
|----------------------------------|
   . . . . . . . . . . . .


|------------------------------|
|------------------------------|
|------------------------------|
|--0-3-2-3-5-3-2-0-3-2-0-2--3--|
|---------------------------1--|
|------------------------------|
   . . . . . . . . . . . .


 X 4                        X 2
coro...countess...
|--------------------------|---------------------------|
|--------------------------|---------------------------|
|--------------------------|---------------------------|
|--7-7--3-3-3--5-5---------|---------5---------5--3----|
|--5-5--1-1-1--3-3--6-6-6--|--5-5-5--3--5-5-5--3--1----|
|-------------------4-4-4--|--3-3-3-----3-3-3----------|



|----------------------------------|
|----------------------------------|
|----------------------------------|
|----------------------------------|
|--5---3---5---8---5---3---5---8---|
|--3---1---3---6---3---1---3---6---|


 X 4 coro...
|--------------------------|
|--------------------------|
|--------------------------|
|--7-7--3-3-3--5-5---------|
|--5-5--1-1-1--3-3--6-6-6--|
|-------------------4-4-4--|





 X 4                                  Fucking Countess
                                        Bathory... fin
|-------------------------------------------------|
|-------------------------------------------------|
|-------------------------------------------------|
|-2-----------------------5--4--3--2--2222222222/-|
|-0--0-00-0-00-0-00-0-00--3--2--1--0--0000000000/-|
|-------------------------------------------------|
     . .. . .. . .. . ..
Comments