Unknown - Titus Theme Chords & Tabs

 

Titus Theme Chords & Tabs

Unknown Chords & Tabs

Version: 1 Type: Tab 0 ratings
1 star 2 stars 3 stars 4 stars 5 stars
comments

Titus Theme Tab

#----------------------------------PLEASE NOTE---------------------------------#
#This file is the author's own work and represents their interpretation of the #
#song. You may only use this file for private study, scholarship, or research. #
#------------------------------------------------------------------------------##


Song: Titus theme
Artist: Unknown
Tabed by: Andreas Nilsen (thacream@hotmail.com)


Well I herd it on a tvshow, named Titus, and thought it was cool, 
but couldnt find the tab anywere, so here it is everyone.


E--------------------------------------------------------
H--------------------------------------------------------
G--------------------------------------------------------
D--------3---5---5--3-5--3--------------3----------------
A----5----------------------5---3---5--------------------
E--------------------------------------------------------
[ Tab from: http://www.guitartabs.cc/tabs/u/unknown/titus_theme_tab.html ]
E--------------------------------------------------------
H--------------------------------------------------------
G-----------5--------------------------------------------
D----5-5/7-----7--5--------5-5---3--5-3-6-5--3-----5-5---
A--------------------7--5-----------------------5--------
E--------------------------------------------------------

E--------------------------------------------------------
H--------------------------------------------------------
G--------------------------------------------------------
D----3--5-3-6-5--3---------------------------------------
A--------------------------------------------------------
E--------------------------------------------------------

this part you can play over and of if you wont...
but the end but to end just play the second

E--------------------------------------------------------
H--------------------------------------------------------
G------------7->-----------------------------------------
D----5-5/7---7->-----------------------------------------
A------------7->-----------------------------------------
E--------------------------------------------------------

part, and slide over G,D and A as hight as you get on your guitar.
but dont make the guitar "kling" just let go of the strings as soon
as your at the top.

Enjoy!

Comments