United Rights Of Us Over You - Scarry Larry Fell Over Chords & Tabs

 

Scarry Larry Fell Over Chords & Tabs

United Rights Of Us Over You Chords & Tabs

Version: 1 Type: Tab 0 ratings
1 star 2 stars 3 stars 4 stars 5 stars
comments

Scarry Larry Fell Over Tab

   
Intro - Guitar 1
e|------------------------|
B|------------------------|
G|-8888-------7777--------|
D|-8888-77/88-7777-5*/12--|
A|-6666-77/88-5555-5*/12--|
E|------55/68------3*/10--|

Intro - Part 2, Guitar 1
e|---------------------|
B|---------------------|
G|----7b---5b-3--------|
D|--5----5------3/4/5--|  x3(only 2nd part)
A|---------------------|
E|---------------------|

Verse 1

Guitar 1 just let last note ring for whole verse

Guitar 2(Now im gonna....)(not positive bout this part)
e|--------------------|
B|--------------------|
G|-77777777-----------|
D|-77777777-6666-5555-|  X2
A|-55555555-6666-5555-|
E|----------4444-3333-|

Chorus   Guitar 1(Your No Big Deal....)
e|------------------------|
B|------------------------|
G|--8888-------7777-------|
D|--8888-77/88-7777-5555--| x2(2nd time let last note ring
A|--6666-77/88-5555-5555--|
E|-------55/66------3333--|
                            

Chorus  Guitar 2
e|------|------------------|---------------|------|
B|------|------------------|---------------|------|
G|------|--8888-------7777-|-6p5-6p5-6p5-0-|------|
D|------|--8888-77/88-7777-|---------------|-5----|
A|------|--6666-77/88-5555-|---------------|-5----|
E|-12\0-|-------55/66------|---------------|-3/12-|
                        First time through    2nd time
Post Chorus
e|---------------------|
B|---------------------|
G|----7b---5b-3--------|
D|--5----5------3/4/5--| x2(let last note ring for rest of verse 
A|---------------------|
E|---------------------|

Verse 2 Guitar 2
e|--------------------|
B|--------------------|
G|-77777777-----------|
D|-77777777-6666-5555-|  X2
A|-55555555-6666-5555-|
E|----------4444-3333-|
[ Tab from: http://www.guitartabs.cc/tabs/u/united_rights_of_us_over_you/scarry_larry_fell_over_tab.html ]
Chorus   Guitar 1(Your No Big Deal....)
e|------------------------|
B|------------------------|
G|--8888-------7777-------|
D|--8888-77/88-7777-5555--| x2(2nd time let last note ring
A|--6666-77/88-5555-5555--|
E|-------55/66------3333--|
                            

Chorus  Guitar 2(I'm gonna prove....)
e|------|------------------|---------------|------|
B|------|------------------|---------------|------|
G|------|--8888-------7777-|-6p5-6p5-6p5-0-|------|
D|------|--8888-77/88-7777-|---------------|-5----|
A|------|--6666-77/88-5555-|---------------|-5----|
E|-12\0-|-------55/66------|---------------|-3----|
                              3 times      4th time

Bridge - Guitar 1 and 2
e|---------|------------------|
B|---------|------------------|
G|---------|---7b---5b--------|
D|-------5-|-5----5-----3/4/5-|
A|-------5-|------------------|
E|-0-1-2-3-|------------------|
guitar 1 ^     Both this time

Verse 3
Guitar 2
e|--------------------|
B|--------------------|
G|-77777777-----------|
D|-77777777-6666-5555-|
A|-55555555-6666-5555-|
E|----------4444-3333-|

Chorus   Guitar 1(Your No Big Deal....)
e|------------------------|
B|------------------------|
G|--8888-------7777-------|
D|--8888-77/88-7777-5555--| x2(2nd time let last note ring
A|--6666-77/88-5555-5555--|
E|-------55/66------3333--|
                            

Chorus  Guitar 2(I'm gonna prove....)
e|------|------------------|---------------|------|
B|------|------------------|---------------|------|
G|------|--8888-------7777-|-6p5-6p5-6p5-0-|------|
D|------|--8888-77/88-7777-|---------------|-5----|
A|------|--6666-77/88-5555-|---------------|-5----|
E|-12\0-|-------55/66------|---------------|-3----|
                              3 times      4th time
Comments