United Live - Shine For You Chords & Tabs

 

Shine For You Chords & Tabs

United Live Chords & Tabs

Version: 1 Type: Tab 0 ratings
1 star 2 stars 3 stars 4 stars 5 stars
comments

Shine For You Tab

   
this song was easy to figure out!
band: united live
tabbed by : jeremy antolin


intro: with guitar(acoustic)
d a e 
d a e
bm d

verses:1
                                   then
|----4h5p4-2-0----4h5p4-\2-4h5p4--(2x)--4h5p4h7p4-4h5p4\2-0--(2x)-|
|-----------------------------------------------------------------|
|-----------------------------------------------------------------|     
|-----------------------------------------------------------------|
|-----------------------------------------------------------------|
|-----------------------------------------------------------------|

thats the verse sorry but you must get the timing!
[ Tab from: http://www.guitartabs.cc/tabs/u/united_live/shine_for_you_tab.html ]
chorus:
                                              mini solo
|---------------------------------------------4h5----2------------|
|--------------------------------------------------5--------------|
|-77777777-------1111-(2x)then-44444444/7777----------------------|
|-77777777-77777/2222----------44444444/7777----------------------|
|-55555555-77777/2222----------22222222/5555----------------------|
|-xxxxxxxx-55555-0000----------xxxxxxxxxxxxx----------------------|

verse2:

|-4h5p4-2-0-4h5p4/2-4-5-4-(2x)-4h5h7-4h5h7-4h5p/2-0-4h5h7-4h5h7-4h5p4-|
|---------------------------------------------------------------------|
|---------------------------------------------------------------------|
|---------------------------------------------------------------------|
|---------------------------------------------------------------------|
|---------------------------------------------------------------------|

chorus

solo:

|-4h5----2--4h5----2--4h5---2--4h5---2---4h5h7--4h5---2-4h5---2--4h5h7-|
|------5---------5--------5--------5----------------5-------5----------|
|----------------------------------------------------------------------|
|----------------------------------------------------------------------|
|----------------------------------------------------------------------|
|----------------------------------------------------------------------|
repeat

bridge:

a e d a e
f#m e d a e

solo in the chorus
then play the chorus

see! its not that hard but the timing counts so this is my tab of it
email me at tuner_nismo@hotmail.com for any changes.
Comments