United Live - Evermore Chords & Tabs

 

Evermore Chords & Tabs

United Live Chords & Tabs

Version: 1 Type: Tab 0 ratings
1 star 2 stars 3 stars 4 stars 5 stars
comments

Evermore Tab

   
-------------------------------------------------------------------------------
			     Evermore( More Than Life) - United Live
-------------------------------------------------------------------------------
Tabbed by: Frank
Email: kipzisfrank@hotmail.com

Tuning: Standard (eBGDAE)

Intro and verse ( Electric Guitar really distorted )

   Lost for word, with all to say   Lord You Take My breath away
e|---------------------------------------------------------------------------|
B|---------------8------------------------8------8-------8-10-------8--------|
G|------------9------------10-----------9-----7--------7----------7----------|
D|---------------------------------------------------------------------------|
A|---------------------------------------------------------------------------|
E|---------------------------------------------------------------------------|
Repeat the above as necessary (kinda hard trying to tab it with da words..) Plz try to 
the timing yourself....
[ Tab from: http://www.guitartabs.cc/tabs/u/united_live/evermore_tab.html ]
Chorus :
   Evermore ... will say  Above All, I Live For Your Glory
     G                D           C     Em             D
e|---x----------------x-----------x-----x--------------x-------------------------|
B|---x----------------x-----------x-----x--------------x--7h8p7-----7h8p7--------|
G|---x----------------7-----------5-----9--------------7--------77-7------77-----|
D|---5----------------7-----------5-----9--------------7-------------------------|
A|---5----------------5-----------3-----7--------------5-------------------------|
E|---3----------------x-----------x-----x--------------x-------------------------|
Again, repeat as necessary.....

SOLO :
      C         Em             D
e|--------------------------------------|
B|------7h9^7--------7h9^7-----7-7-7^7--|
G|------------------------------7-7-----|
D|--------------------------------------|
A|--------------------------------------|
E|--------------------------------------|
Repeat..... This Solo is either notr complete or not accurate... I have to listen more 
next time.... I will redo the solo..

Okie The rest is just the power chords and you can find it from the other tabs .. This 
is just for some of the riff.... God Bless

| /  slide up
| \  slide down
| h  hammer-on
| p  pull-off
| ~  vibrato
| +  harmonic
| x  Mute note
===============================================================================
Comments