United Live - All Day Chords & Tabs

 

All Day Chords & Tabs

United Live Chords & Tabs

Version: 3 Type: Bass Tab 0 ratings
1 star 2 stars 3 stars 4 stars 5 stars
comments

All Day Bass Tab

Tabbed By : Jesusfreak543210
e-mail: Jesusfreak543210@yahoo.com


Tuning:normal

Intro:

G|-------------1-------------------|
D|---------2-2---2-----1-2---------|
A|-----1-2---------2-2---------2-1-| x22 (play until first chorus)
E|-4-4---------------------2-2-----|

Chorus:

G|--------------------------------------------------------------|
D|--------------------------------------------------------------|
A|--2-2-2---------2-2-2---------2-2-2---------------------------| x2
E|---------00-0-0--------22-2-2--------00-0-0--4-4-4-4--0-0-0-0-|

After Chorus:

G|-------------1-------------------|
D|---------2-2---2-----1-2---------|
A|-----1-2---------2-2---------2-1-| x2 (dont play until in the verse)
E|-4-4---------------------2-2-----|     it says "I love you and ill follow
                                         you, you are my life"

"I love you and ill follow you, you are my, my life"

G|----------------------------------|
D|----------------------------------|
A|--2-2-2-2-------------------------| x3
E|----------0-0-0-0-2-2-2-2-0-0-0-0-|

and then right before the chorus it goes

G|-------------1-------------------|
D|---------2-2---2-----1-2---------|
A|-----1-2---------2-2---------2-1-| x1
E|-4-4---------------------2-2-----|
[ Tab from: http://www.guitartabs.cc/tabs/u/united_live/all_day_btab_ver_3.html ]
G|--------------------------------------------------------------|
D|--------------------------------------------------------------|
A|--2-2-2---------2-2-2---------2-2-2---------------------------| x2
E|---------00-0-0--------22-2-2--------00-0-0--4-4-4-4--0-0-0-0-|

and then the Bridge:

G|----------------------------------|
D|----------------------------------|
A|--4-4-4-4-4-4-4-4-7-7-7-7-7-7-7-7-| x4
E|----------------------------------|

then there is a pause, listen to the song to get the timing down on this next part. im 
to sure about this part.

G|-------------------------------------------------------------------------|
D|----------------------------------0-0-0-0---------2-2-2-2---------0-0-0-0|
A|--2-2--------2-2-2--------2-2-2-2---------2-2-2-2---------2-2-2-2--------|
E|-------------------------------------------------------------------------|

G|-------------------------------------------------------------------------|
D|--2-2-2-2-0-0-0-0--------------------------------------------------------|
A|-------------------2-2-2-2---------2-2-2-2-------------------------------|
E|---------------------------2-2-2-2---------4-4-4-4-----------------------|

Chorus:

G|--------------------------------------------------------------|
D|--------------------------------------------------------------|
A|--2-2-2---------2-2-2---------2-2-2---------------------------|
E|---------00-0-0--------22-2-2--------00-0-0--4-4-4-4--0-0-0-0-|

the song ends on a B

I made this tab b/c i could not find a tab that was correct so i decided to make one i 
this helps you.
God Bless

If you have any comments plz email me at JESUSFREAK543210@YAHOO.COM
im open for critizim or how good the tab was. also plz tell me if there was anything 
with the tab.
Comments