Unit - End Chords & Tabs

 

End Chords & Tabs

Unit Chords & Tabs

Version: 1 Type: Tab 0 ratings
1 star 2 stars 3 stars 4 stars 5 stars
comments

End Tab

   
ARTIST: UNIT 
SONG: END

Standar Tuning

CHORDS
    	 E    E 
Bm 	(x24432)
Bmsus9  (x24422)
A	(002220)
E	(022100)
G	(355433)
F#	(244322)
D	(x00232)
B5	(x244xx)
A5	(x022xx)
A5(2)	(x,12,14,14,xx)
E5	(022xxx)
E5(2)	(0799xx)
D5	(x577xx)
G5	(x,10,12,12,xx)
F#5	(x9,11,11,xx)

INTRO (clean)

Bm, Bmsus9, Bm, A, E

DidnĀ“t have a nice day........

VERSES (w/distortion)

B5, A5, E5

there's another guitar doin' this riff

D -9-9-9-9-7-7-3-3-9-9-9-9--------------------------------------------
A -9-9-9-9-7-7-3-3-9-9-9-9-4-4-7-7-7-7--------------------------------
E -7-7-7-7-5-5-0-0-7-7-7-7-5-5----------------------------------------

(CHORUS)

G                      F#      G                    F#
Thought it was gonna be alright but it all went to hell

(INTERLUDE)

E        G        F#
Not too much meditation 

E          G      F#
Don't want no isolation

E          G    F#
I want no more lies 

E         G         F#
Not too much of my pacience


SOLO (w/wah)


e ----------------------------------------7-----10-7----------7----7----7---7---------------
B -7--10-7--------------------------7-10b---10b------10b-7---7----7----7---7----------------
G -9b------7-9b-7---7---------7-7h9 -----------------------9b---9b---9b--9b-----------------
D ----------------9---9-9-7h9 --------------------------------------------------------------
A ------------------------------------------------------------------------------------------
E ------------------------------------------------------------------------------------------

[ Tab from: http://www.guitartabs.cc/tabs/u/unit/end_tab.html ]
e -10h9h7-10h9h7-10h9h7-10b-10-7-7---9---10--12--14-14-17-14--------------------------------
B -------------------------------10b-12b-13b-15b-17b---------11--11--11---12--12--12--11----
G -----------------------------------------------------------13b-13b-13b--14b-14b-14b-13b---
D ------------------------------------------------------------------------------------------
A ------------------------------------------------------------------------------------------
E ------------------------------------------------------------------------------------------


BRIDGE (There's another guitar in this simbols )
                           
D                E                 D
   And I will remember those days 
                   
               E           D 
I tried to be tender always
                
               E
It was our confusion
                
     G                 A    D
And we should have to crave
                
                  E     D
I begged comunication 
                
                  E     D
It was the agravation 
                    
                  E         G
Got to bite the bitter ache 
               
                F#
And keep the strength


OUTRO 


e ---------------------------------------------------------------------------
B ---------------------------------------------------------------------------
G ---------------------------------------------------------------------------
D -----------------------------------------7---------------------------------
A -----5--------------------------5---5-7b---7-5-----5-----------------------
E -5h7---7---7-7-5-5-2-2-0-0--5h7---7------------5h7---7--7-7-5-5-2-2-0-0----


e ---------------------------------------------------------------------------
B ---------------------------------------------------------------------------
G ---------------------------------------------------------------------------
D ---------------------------------------------------------------------------
A -----5--7b-5-7b-5----------------------------------------------------------
E -5h7--------------7-5-7--------5----7--------------------------------------

Hope u liked it, for any comments or anything write 
andrededeco@hotmail.com 
bye







Comments