Union Youth - In My Heart Chords & Tabs

 

In My Heart Chords & Tabs

Union Youth Chords & Tabs

Version: 1 Type: Tab 0 ratings
1 star 2 stars 3 stars 4 stars 5 stars
comments

In My Heart Tab

Union Youth

In My Heart


tabbed by: Baumi





Main Riff:
       
|----------------|
|----------------|
------------6----|  
|----5------6----|
|----5(7x)--4----|
|----3-----------|
|----------------|


Verse:
|------------------|
|------------------|
|------------------|
|----12(7x)--11----|
|------------------|


Pre-Chorus
|-------------------------|
|-------------------------|
|-------------------------|
|----5-511111111111110----|
|----5-511111111111110----|
|----3-3 9 9 9 9 9 9 8----|

[ Tab from: http://www.guitartabs.cc/tabs/u/union_youth/in_my_heart_tab.html ]
Chorus:
|-------------------------------------------------|
|-------------------------------------------------|
|-------------------------------------------------|
|----8-82-222-11-115-555-8-82-222-5-511-111111----|
|----8-82-222-11-115-555-8-82-222-5-511-111111----|
|----6-60-000- 9- 93-333-6-60-000-3-3 9- 9 9 9----|


Solo1: under main riff
|-------------------------------------|
|-------------------------------------|
|----------3-5-6-5-3-------3-5-6-5----|
|----5-555-----------5-555------------|
|-------------------------------------|
|-------------------------------------|


Solo2: under chorus
|---------------------------------------------------------------------|
|---------------------------------------------------------------------|
|---------------------------------------------------------------------|
|----8----8-7-6-5-8-8----8-7-6-5-8-8----8-7-6-5-8-8----8-7-6-5-8//----|
|------7--------------7--------------7--------------7-----------------|
|----------------------------------------------------------------------
Comments