Union Underground - South Texas Deathride Chords & Tabs

 

South Texas Deathride Chords & Tabs

Union Underground Chords & Tabs

Version: 1 Type: Tab 0 ratings
1 star 2 stars 3 stars 4 stars 5 stars
comments

South Texas Deathride Tab

Title: South Texas Deathride
Artist: The Union Underground
Album: An Education in Rebellion
Tabbed by: Theresa kittielitter79@hotmail.com



INTRO

-----------------------------------------
-----------------------------------------
------------3---------------3------------
--3--2----2---2----3--2--2----2--2--3----
-----------------------------------------
-----------------------------------------

Do that part twice, then you get into the heavier part which is:

---------------------------
---------------------------
----------------3----------
3--2-0-2-2-------2-2-3-----
----2-0-2-2------2-2-3-----
----2-0-2-2------2-2-3-----


Do that 4 times. Then it goes into the verses.

VERSE

--------------------------
--------------------------
--------------------------
----0-2-0-2-0-2-0-2--5----
----0-2-0-2-0-2-0-2--5----
----0-2-0-2-0-2-0-2--5----


"Come on come on come on get up get up,
come on come on come on get up get up"

CHORUS
[ Tab from: http://www.guitartabs.cc/tabs/u/union_underground/south_texas_deathride_tab.html ]
---------------------------
---------------------------
----------------3----------
3--2-0-2-2-------2-2-3-----
----2-0-2-2------2-2-3-----
----2-0-2-2------2-2-3-----


(which was basically the heavier part of the intro)

During the bridge, theres a solo and I'm not sure
if its a guitar or not, but if it is, its a bunch of slides
on the third string from 15 to 16, the on the first string
some playing around 17 and 18 ish. Be creative and figure out 
something fun to play, since its hard to know what exactly
theyre doing. I'll assume since Union Underground has 2 guitars,
that is a guitar. But like I said, have fun with it on your own.

But while the solo is going, theres a guitar in the background going:

-----------------------------------
-----------------------------------
-----------------------------------
-0-2--0-2--0-2--0--5/7--8/5--7-----
-0-2--0-2--0-2--0--5/7--8/5--7-----
-0-2--0-2--0-2--0--5/7--8/5--7-----

Then of course, you repeat the chorus a little (a lot)
and then youre done!

*hugz N middle fingerz*

~Theresa
Comments