Union Underground - Revolution Man Chords & Tabs

 

Revolution Man Chords & Tabs

Union Underground Chords & Tabs

Version: 1 Type: Bass Tab 0 ratings
1 star 2 stars 3 stars 4 stars 5 stars
comments

Revolution Man Bass Tab

   
Artist: Union Underground
Song: Revolution Man
Album: An Education In Rebellion
Tuning: D A D E
Tabbed By: Dean K (projectwyze13@hotmail.com)

INTRO:

G|----------------------------------------------------------------|
D|----------------------------------------------------------------|
A|--55-563--55-563--55-563--55-563--------------------------------| x2
D|--------------------------------55-563--55-563--55-563--55-563--|

VERSE:

G|-----------------------|
D|-----------------------|
A|-----------------------| x4
D|--5-5-5-3----1-2-3-0--|

CHORUS:

G|----------------------------------|
D|----------------------------------|
A|--55-563--55-563--55-563--55-563--| x1 
D|----------------------------------|

G|----------------------------------------------------------------|
D|----------------------------------------------------------------|
A|--55-563--55-563--55-563--55-563--------------------------------| x2
D|--------------------------------55-563--55-563--55-563--55-563--|


VERSE:

G|-----------------------|
D|-----------------------|
A|-----------------------| x4
D|--5-5-5-3----1-2-3-0---|


CHORUS:
[ Tab from: http://www.guitartabs.cc/tabs/u/union_underground/revolution_man_btab.html ]
G|----------------------------------|
D|----------------------------------|
A|--55-563--55-563--55-563--55-563--| x1 
D|----------------------------------|

G|----------------------------------------------------------------|
D|----------------------------------------------------------------|
A|--55-563--55-563--55-563--55-563--------------------------------| x2
D|--------------------------------55-563--55-563--55-563--55-563--|

VERSE:

G|-----------------------|
D|-----------------------|
A|-----------------------| x4
D|--5-5-5-3----1-2-3-0---|


CHORUS:

G|----------------------------------|
D|----------------------------------|
A|--55-563--55-563--55-563--55-563--| x1 
D|----------------------------------|

G|----------------------------------------------------------------|
D|----------------------------------------------------------------|
A|--55-563--55-563--55-563--55-563--------------------------------| x2
D|--------------------------------55-563--55-563--55-563--55-563--|



VERSE:

G|-----------------------|
D|-----------------------|
A|-----------------------| x5
D|--5-5-5-3----1-2-3-0---|

OUTRO:

G|----------------------------|
D|----------------------------|
A|----------------------------|
D|--5-5-5-3----1--2--3--0-----|
Comments